Song name
# A B C D E F G H I J K L M N O P Q R S T U V W X Y Z

Matt Costa - Lilacs Acoustic tab

Song Name: Lilacs
Artist: Matt Costa
Album Title: Unfamiliar Faces

The following is Matt Costa's song "Lilacs" In the acoustic version. You may find this 
on youtube played by him if you have problems reading it.

Any other problems, feel free to E-mail me.

Tuning: Standard

Intro:

e|-----------------------------------------------------|
B|-8-8-8-8-----------------8-8-8-8---------------------|
G|-8-8-8-8-----------------8-8-8-8---------------------|
D|-8-8-8-8-8-8-8-8-8-8-8-8-8-8-8-8-8-8-8-8-8-8-8-8-----|
A|-6-6-6-6-8-8-8-8-8-8-8-8-6-6-6-6-8-8-8-8-8-8-8-8-----|
E|---------6-6-6-6-6-6-6-6---------6-6-6-6-6-6-6-6-----|

e|-----------------------------------------------------|
B|-----------------------------------------------------|
G|-6-6-6-6-6-6-6-6-6-6-6-6-5-5-5-5-5-5-5-5-5-5-5-5-----|
D|-0-0-0-0-0-0-0-0-0-0-0-0-0-0-0-0-0-0-0-0-0-0-0-0-----|  x2
A|-6-6-6-6-6-6-6-6-6-6-6-6-6-6-6-6-6-6-6-6-6-6-6-6-----|
E|-4-4-4-4-4-4-4-4-4-4-4-4-4-4-4-4-4-4-4-4-4-4-4-4-----|

Verse & Chorus:

e|-----------------------------------------------------|
B|-8-8-8-8-----------------8-8-8-8---------------------|
G|-8-8-8-8-----------------8-8-8-8---------------------|
D|-8-8-8-8-8-8-8-8-8-8-8-8-8-8-8-8-8-8-8-8-8-8-8-8-----|
A|-6-6-6-6-8-8-8-8-8-8-8-8-6-6-6-6-8-8-8-8-8-8-8-8-----|
E|---------6-6-6-6-6-6-6-6---------6-6-6-6-6-6-6-6-----|

e|-----------------------------------------------------|
B|-----------------------------------------------------|
G|-6-6-6-6-5-5-5-5-5-5-5-5-6-6-6-6-5-5-5-5-5-5-5-5-----|
D|-0-0-0-0-0-0-0-0-0-0-0-0-0-0-0-0-0-0-0-0-0-0-0-0-----|  x4
A|-6-6-6-6-6-6-6-6-6-6-6-6-6-6-6-6-6-6-6-6-6-6-6-6-----|
E|-4-4-4-4-4-4-4-4-4-4-4-4-4-4-4-4-4-4-4-4-4-4-4-4-----|

Then:

e|-----------------------------------------------------|
B|-8-8-8-8-----------------8-8-8-8---------------------|
G|-8-8-8-8-----------------8-8-8-8---------------------|
D|-8-8-8-8-8-8-8-8-8-8-8-8-8-8-8-8-8-8-8-8-8-8-8-8-----|
A|-6-6-6-6-8-8-8-8-8-8-8-8-6-6-6-6-8-8-8-8-8-8-8-8-----|
E|---------6-6-6-6-6-6-6-6---------6-6-6-6-6-6-6-6-----|

e|-----------------------------------------------------|
B|-----------------------------------------------------|
G|-6-6-6-6-6-6-6-6-6-6-6-6-5-5-5-5-5-5-5-5-5-5-5-5-----|
D|-0-0-0-0-0-0-0-0-0-0-0-0-0-0-0-0-0-0-0-0-0-0-0-0-----|
A|-6-6-6-6-6-6-6-6-6-6-6-6-6-6-6-6-6-6-6-6-6-6-6-6-----|
E|-4-4-4-4-4-4-4-4-4-4-4-4-4-4-4-4-4-4-4-4-4-4-4-4-----|

2nd Verse & Chorus (Same as first chorus):

e|-----------------------------------------------------|
B|-8-8-8-8-----------------8-8-8-8---------------------|
G|-8-8-8-8-----------------8-8-8-8---------------------|
D|-8-8-8-8-8-8-8-8-8-8-8-8-8-8-8-8-8-8-8-8-8-8-8-8-----|
A|-6-6-6-6-8-8-8-8-8-8-8-8-6-6-6-6-8-8-8-8-8-8-8-8-----|
E|---------6-6-6-6-6-6-6-6---------6-6-6-6-6-6-6-6-----|

e|-----------------------------------------------------|
B|-----------------------------------------------------|
G|-6-6-6-6-5-5-5-5-5-5-5-5-6-6-6-6-5-5-5-5-5-5-5-5-----|
D|-0-0-0-0-0-0-0-0-0-0-0-0-0-0-0-0-0-0-0-0-0-0-0-0-----|  x4
A|-6-6-6-6-6-6-6-6-6-6-6-6-6-6-6-6-6-6-6-6-6-6-6-6-----|
E|-4-4-4-4-4-4-4-4-4-4-4-4-4-4-4-4-4-4-4-4-4-4-4-4-----|

Then:

e|-----------------------------------------------------|
B|-8-8-8-8-----------------8-8-8-8---------------------|
G|-8-8-8-8-----------------8-8-8-8---------------------|
D|-8-8-8-8-8-8-8-8-8-8-8-8-8-8-8-8-8-8-8-8-8-8-8-8-----|
A|-6-6-6-6-8-8-8-8-8-8-8-8-6-6-6-6-8-8-8-8-8-8-8-8-----|
E|---------6-6-6-6-6-6-6-6---------6-6-6-6-6-6-6-6-----|

e|-----------------------------------------------------|
B|-----------------------------------------------------|
G|-6-6-6-6-6-6-6-6-6-6-6-6-5-5-5-5-5-5-5-5-5-5-5-5-----|
D|-0-0-0-0-0-0-0-0-0-0-0-0-0-0-0-0-0-0-0-0-0-0-0-0-----|
A|-6-6-6-6-6-6-6-6-6-6-6-6-6-6-6-6-6-6-6-6-6-6-6-6-----|
E|-4-4-4-4-4-4-4-4-4-4-4-4-4-4-4-4-4-4-4-4-4-4-4-4-----|

Bridge:

e|-----------------------------------------------------|
B|-9--9--9--9--9--9--9--9--9---------------------------|
G|-10-10-10-10-10-10-10-10-10-5-5-5-5-5-5-5-5-5-5------|
D|-10-10-10-10-10-10-10-10-10-6-6-6-6-6-6-6-6-6-6------|  x4
A|-8--8--8--8--8--8--8--8--8--6-6-6-6-6-6-6-6-6-6------|
E|----------------------------4-4-4-4-4-4-4-4-4-4------|

e|-----------------------------------------------------|
B|-8-----13-----8-----------8-----13-----8-------------|
G|-8-----13-----8-----5-----8-----13-----8-------------|
D|-8--8--13-----8--8--6-----8--8--13-----8--8----------|
A|-6--8--11-----6--8--6-----6--8--11-----6--8----------|
E|----6------------6--4--------6------------6----------|

e|-----------------------------------------------------|
B|---------------------13-13-13-13-13-13-13-13-13-13---|
G|-5-5-5-5-5-5-5-5-5-5-13-13-13-13-13-13-13-13-13-13---|
D|-6-6-6-6-6-6-6-6-6-6-13-13-13-13-13-13-13-13-13-13---|
A|-6-6-6-6-6-6-6-6-6-6-11-11-11-11-11-11-11-11-11-11---|
E|-4-4-4-4-4-4-4-4-4-4---------------------------------|

3rd Verse & Chorus (Same as first and second chorus):

e|-----------------------------------------------------|
B|-8-8-8-8-----------------8-8-8-8---------------------|
G|-8-8-8-8-----------------8-8-8-8---------------------|
D|-8-8-8-8-8-8-8-8-8-8-8-8-8-8-8-8-8-8-8-8-8-8-8-8-----|
A|-6-6-6-6-8-8-8-8-8-8-8-8-6-6-6-6-8-8-8-8-8-8-8-8-----|
E|---------6-6-6-6-6-6-6-6---------6-6-6-6-6-6-6-6-----|

e|-----------------------------------------------------|
B|-----------------------------------------------------|
G|-6-6-6-6-5-5-5-5-5-5-5-5-6-6-6-6-5-5-5-5-5-5-5-5-----|
D|-0-0-0-0-0-0-0-0-0-0-0-0-0-0-0-0-0-0-0-0-0-0-0-0-----|  x4
A|-6-6-6-6-6-6-6-6-6-6-6-6-6-6-6-6-6-6-6-6-6-6-6-6-----|
E|-4-4-4-4-4-4-4-4-4-4-4-4-4-4-4-4-4-4-4-4-4-4-4-4-----|

Then:

e|-----------------------------------------------------|
B|-8-8-8-8-----------------8-8-8-8---------------------|
G|-8-8-8-8-----------------8-8-8-8---------------------|
D|-8-8-8-8-8-8-8-8-8-8-8-8-8-8-8-8-8-8-8-8-8-8-8-8-----|
A|-6-6-6-6-8-8-8-8-8-8-8-8-6-6-6-6-8-8-8-8-8-8-8-8-----|
E|---------6-6-6-6-6-6-6-6---------6-6-6-6-6-6-6-6-----|

e|-----------------------------------------------------|
B|-----------------------------------------------------|
G|-6-6-6-6-6-6-6-6-6-6-6-6-5-5-5-5-5-5-5-5-5-5-5-5-----|
D|-0-0-0-0-0-0-0-0-0-0-0-0-0-0-0-0-0-0-0-0-0-0-0-0-----|
A|-6-6-6-6-6-6-6-6-6-6-6-6-6-6-6-6-6-6-6-6-6-6-6-6-----|
E|-4-4-4-4-4-4-4-4-4-4-4-4-4-4-4-4-4-4-4-4-4-4-4-4-----|

Ending:

e|-----------------------------------------------------|
B|-9--9--9--9--9--9--9--9--9---------------------------|
G|-10-10-10-10-10-10-10-10-10-5-5-5-5-5-5-5-5-5-5------|
D|-10-10-10-10-10-10-10-10-10-6-6-6-6-6-6-6-6-6-6------|  x4
A|-8--8--8--8--8--8--8--8--8--6-6-6-6-6-6-6-6-6-6------|
E|----------------------------4-4-4-4-4-4-4-4-4-4------|

e|-----------------------------------------------------|
B|-8-----13-----8-----------8-----13-----8-------------|
G|-8-----13-----8-----5-----8-----13-----8-------------|
D|-8--8--13-----8--8--6-----8--8--13-----8--8----------|
A|-6--8--11-----6--8--6-----6--8--11-----6--8----------|
E|----6------------6--4--------6------------6----------|

e|-----------------------------------------------------|
B|-----------------------------------------------------|
G|-5-5-5-5-5-5-5-5-5-5-5-5-5-5-5-5-5-5-5-5-5-5-5-5-5---|
D|-6-6-6-6-6-6-6-6-6-6-6-6-6-6-6-6-6-6-6-6-6-6-6-6-6---|
A|-6-6-6-6-6-6-6-6-6-6-6-6-6-6-6-6-6-6-6-6-6-6-6-6-6---|
E|-4-4-4-4-4-4-4-4-4-4-4-4-4-4-4-4-4-4-4-4-4-4-4-4-4---|

e|-----------------------------------------------------|
B|-13-13-13-13-13-13-13-13-13-13-13-13-13-13-13-13-13--|
G|-13-13-13-13-13-13-13-13-13-13-13-13-13-13-13-13-13--|
D|-13-13-13-13-13-13-13-13-13-13-13-13-13-13-13-13-13--|
A|-11-11-11-11-11-11-11-11-11-11-11-11-11-11-11-11-11--|
E|-----------------------------------------------------|

e|-----------------------------------------------------|
B|-----------------------------------------------8-----|
G|-5-5-5-5-5-5-5-5-5-5-5-5-5-5-5-5-5-5-5-5-5-5---8-----|
D|-6-6-6-6-6-6-6-6-6-6-6-6-6-6-6-6-6-6-6-6-6-6---8-----|
A|-6-6-6-6-6-6-6-6-6-6-6-6-6-6-6-6-6-6-6-6-6-6---6-----|
E|-4-4-4-4-4-4-4-4-4-4-4-4-4-4-4-4-4-4-4-4-4-4---------|
Tap to rate this tab
 
# A B C D E F G H I J K L M N O P Q R S T U V W X Y Z