Song name
# A B C D E F G H I J K L M N O P Q R S T U V W X Y Z

Matt Costa - Movin On tab

Highlighted       Show chord diagrams
-------------------------------------------------------------------------------
                            Movin' On - Matt Costa
-------------------------------------------------------------------------------
Tabbed by: Mccoy!
Email: Chris0505@hotmail.co.uk :)

Tuning: Standard (EADGBe)

Chords: D (x x 0 2 3 2)
        C (x 3 2 0 1 0)
        G (3 x 0 0 0 3)
       A# (x 1 3 3 3 1)

Intro:

e|--------------------------------------------|
B|--------------------------------------------|
G|-----------------------2-2------------------|
D|--0-0-3^-0-3^-0-3^-0---0-0-3^-0-3^-0-3^-0~--|
A|--------------------------------------------| 
E|--------------------------------------------|


D
So much movin' we got to do
C
Don't want to wait for my shoes
G                             D
So walk over me before, before I do

D
So much talking left to do
C
You stop talking way too soon
G                                  D
I put my shoes right back, back on too
C                 G       D
So what's left to do with you?
C                 G       D
So what's left to do with you?

Break: D  C  G  D

D
So much fighting left to do
C
Don't wanna stop before I'm through
G                               D
Put my dollar out back, back on you

Break: D

D
You tie me up, you spit me out
C
I went too far but I can melt
G                             D
Time will take its toll, it's true
C                 G       D
So what's left to do with you?
C                 G       D
So what's left to do with you?

Break: D  C  G  D  C  A#

e|----------------------------------------------------------------------|
B|----------------------------------------------------------------------|
G|----------------------------------------------------------------------| (x2)
D|----------------------------------------------------------------------|
A|--5-5-5-5-6-5-5-5--5-5-5-5-6-5-5-5--3-3-3-3-4-3-3-3--3-3-3-3-4-3-3-3--|
E|--3-3-3-3-3-3-3-3--3-3-3-3-3-3-3-3--1-1-1-1-1-1-1-1--1-1-1-1-1-1-1-1--|

e|------------------------------------------1-1-1-1-1-1-1---x-----------|
B|------------------------------------------3-3-3-3-3-3-3---x-----------|
G|------------------------------------------3-3-3-3-3-3-3---x-----------|
D|--5-5-5-5-8-5-5-5--5-5-5-5-8-5-5-5--(x2)--3-3-3-3-3-3-3-3-x-----------|
A|--3-3-3-3-3-3-3-3--3-3-3-3-3-3-3-3--------1-1-1-1-1-1-1-3-x-----------|
E|--------------------------------------------------------1-x-----------|

Break: D  C  G  D  C  G  D 

D
So much movin' I got to do
C
Don't want to wait for my shoes
G                                D
To walk over me before, before I do
D
There's so much talking left to do
C (then stop)
You stop talkin' way too soon
G                                D
Put my shoes right back, back on too
C                 G       D
So what's left to do with you?
C                 G       D
So what's left to do with you?

Break: D  C  G  D

(no guitar)               D
So what's left to do with you?

Break: D  C  G  D  C  G  D 

C                 G       D
So what's left to do with you?



| /  slide up
| \  slide down
| h  hammer-on
| p  pull-off
| ~  vibrato
| +  harmonic
| x  Mute note                                                         Roof Run
===============================================================================
Tap to rate this tab
 
# A B C D E F G H I J K L M N O P Q R S T U V W X Y Z