Song name
# A B C D E F G H I J K L M N O P Q R S T U V W X Y Z

Matt Costa - Behind The Moon tab

 
  Intro:
 
The intro is played slightly muted.
  e|--------------------|
  B|--------------------|
  G|--------------------|
  D|---2--2-2-2---------| x4
  A|---2--2-2-2---------|
  E|-0----------3-0-3-0-|

Verse 1:
 e|------------------------------------0------------------0---------------|
 B|------------------------------------0------------------0---------------|
 G|------------------------------------0------------------0---------------|
 D|------------2-----------------------2--2-2-2-----------2--2-2-2--------|
 A|--------0-2---2-0---------2p0-------2--2-2-2-----------2--2-2-2--------|
 E|--0-2-3-----------3-0-3-0-----3-2-0----------3-0-3-0-0----------3-0-3-0|

 e|------------------------------------0------------------0---------------|
 B|------------------------------------0------------------0---------------|
 G|------------------------------------0------------------0---------------|
 D|------------2-----------------------2--2-2-2-----------2--2-2-2--------|
 A|--------0-2---2-0---------2p0-------2--2-2-2-----------2--2-2-2--------|
 E|--0-2-3-----------3-0-3-0-----3-2-0----------3-0-3-0-0----------3-0-3-0|

 Chorus:
 C        G        D               Em 
 So here I come to dance around the sun
 C         G           D                Em
 I've been oh so blue, stuck behind the moon
 C          G   D              Em
 Now let me in, back where we begin
 C          G                 D
 And let me hold you like the way,

      e|--------------------|\
      B|--------------------| \
      G|--------------------|  \ 
      D|---2--2-2-2---------|  / x4
      A|---2--2-2-2---------| /
      E|-0----------3p0-3p0-|/
I used to do.        Oo  Oo 


  Verse 2:

 e|------------------------------------0------------------0----------------|
 B|------------------------------------0------------------0----------------|
 G|------------------------------------0------------------0----------------|
 D|------------2-----------------------2--2-2-2-----------2--2-2-2---------|
 A|--------0-2---2-0---------2p0-------2--2-2-2-----------2--2-2-2---------|
 E|--0-2-3-----------3-0-3-0-----3-2-0----------3-0-3-0-0----------3-0-3-0-|

 e|------------------------------------0------------------0----------------|
 B|------------------------------------0------------------0----------------|
 G|------------------------------------0------------------0----------------|
 D|------------2-----------------------2--2-2-2-----------2--2-2-2---------|
 A|--------0-2---2-0---------2p0-------2--2-2-2-----------2--2-2-2---------|
 E|--0-2-3-----------3-0-3-0-----3-2-0----------3-0-3-0-0----------3-0-3-0-|

 Chorus:
 C        G        D               Em 
 So here I come to dance around the sun
 C         G           D                Em
 I've been oh so blue, stuck behind the moon
 C          G   D              Em
 Now let me in, back where we begin
 C          G                 D
 And let me hold you like the way,

      e|--------------------|\
      B|--------------------| \
      G|--------------------|  \ 
      D|---2--2-2-2---------|  / x2
      A|---2--2-2-2---------| /
      E|-0----------3-0-3-0-|/
I used to do.        Oo  Oo /

 Distortion:

      C  C C C   D  D D D  Em
 e|---3--3-3-3---5--5-5-5--0~~|\
 B|---5--5-5-5---7--7-7-7--0~~| \
 G|---5--5-5-5---7--7-7-7--0~~|  \x2
 D|---5--5-5-5---7--7-7-7--2~~|  /
 A|---3--3-3-3---5--5-5-5--2~~| /
 E|-0-3--3-3-3-0-5--5-5-5--0~~|/

 e|--------------------|\
 B|--------------------| \
 G|--------------------|  \x2
 D|---2--2-2-2---------|  /
 A|---2--2-2-2---------| /
 E|-0----------3-0-3-0-|/

 Lead:
 e|------------------------------------0------------------0----------------|
 B|------------------------------------0------------------0----------------|
 G|------------------------------------0------------------0----------------|
 D|------------2-----------------------2--2-2-2-----------2--2-2-2---------|
 A|--------0-2---2-0---------2p0-------2--2-2-2-----------2--2-2-2---------|
 E|--0-2-3-----------3-0-3-0-----3-2-0----------3-0-3-0-0----------3-0-3-0-|
-
 e|------------------------------------0------------------0----------------|
 B|------------------------------------0------------------0----------------|
 G|------------------------------------0------------------0----------------|
 D|------------2-----------------------2--2-2-2-----------2--2-2-2---------|
 A|--------0-2---2-0---------2p0-------2--2-2-2-----------2--2-2-2---------|
 E|--0-2-3-----------3-0-3-0-----3-2-0----------3-0-3-0-0----------3-0-3-0-|
 
 e|----------------------------------------------------------|
 B|----------------------------------------------------------|
 G|----------------------------------------------------------|
 D|----------------------------------------------------------|
 A|--3-3-2-0--------------3-3-2/5-3-2-0--0-0-3p2p0---3-3-2---|
 E|----------3--0-0-3p2p0--------------------------3-------3-|


 e|-------------------------------------|
 B|-------------------------------------|
 G|-------------------------------------|
 D|-------------------------------------|
 A|-----------3-3-2/5--3-2-0------0-----|
 E|-0-0-3p2p0-------------------3---3-0-|


 e|--------------------|\
 B|--------------------| \
 G|---0----------------|  \x4
 D|---2--2-2-2---------|  /
 A|---2--2-2-2---------| /
 E|-0----------3-0-3-0-|/

Verse 3:

 e|------------------------------------0------------------0----------------|
 B|------------------------------------0------------------0----------------|
 G|------------------------------------0------------------0----------------|
 D|------------2-----------------------2--2-2-2-----------2--2-2-2---------|
 A|--------0-2---2-0---------2p0-------2--2-2-2-----------2--2-2-2---------|
 E|--0-2-3-----------3-0-3-0-----3-2-0----------3-0-3-0-0----------3-0-3-0-|

 e|------------------------------------0------------------0----------------|
 B|------------------------------------0------------------0----------------|
 G|------------------------------------0------------------0----------------|
 D|------------2-----------------------2--2-2-2-----------2--2-2-2---------|
 A|--------0-2---2-0---------2p0-------2--2-2-2-----------2--2-2-2---------|
 E|--0-2-3-----------3-0-3-0-----3-2-0----------3-0-3-0-0----------3-0-3-0-|
 

 Chorus:
  C        G        D               Em 
  So here I come to dance around the sun
  C         G           D                Em
  I've been oh so blue, stuck behind the moon
  C          G   D              Em
  Now let me in, back where we begin
  C          G                 D
  And let me hold you like the way
  C          G                 D
  And let me hold you like the way
  C          G                 D
  And let me hold you like the way

                         ^ v ^ v   ^ v ^ v
 e|----------------------2-2-2-2---2-2-2-2-|\
 B|----------------------3-3-3-3---3-3-3-3-| \
 G|---0------------------2-2-2-2---2-2-2-2-|  \ x3
 D|---2--2-2-2---------0-0-0-0-0-0-0-0-0-0-|  /
 A|---2--2-2-2-----------------------------| /
 E|-0----------3-0-3-0---------------------|/
                        \_______ D _______/
 


 e|-------------------|
 B|-------------------|
 G|-------------------|
 D|---2--2-2-2--------|
 A|---2--2-2-2--------|
 E|-0----------3-0-3-0|


There it is. 

   _Marcel_


Tap to rate this tab
 
# A B C D E F G H I J K L M N O P Q R S T U V W X Y Z