Song name
# A B C D E F G H I J K L M N O P Q R S T U V W X Y Z

Matt Costa - Oh Dear tab

|-Matt-Costa-------------|
|--Oh--Dear--------------|
|-tabbed-by-marcelaguiar-|

Intro:

e|-12-12-12-12-12-12-|
B|-11----------------|
G|-12----------------|
D|-------------------|
A|-------------------|
E|-------------------|

e|-3--3--3--3-|
B|-3--3--3--3-|
G|-4--4--4--4-| 
D|-5--5--5--5-|
A|-5--5--5--5-|
E|-3--3--3--3-|

Verse:

e|-3--3--3--3-|-7--7--7--7-|-5--5--5--5-|-3--3--3--3-|
B|-3--3--3--3-|-7--7--7--7-|-5--5--5--5-|-5--5--5--5-|
G|-4--4--4--4-|-8--8--8--8-|-6--6--6--6-|-5--5--5--5-|
D|-5--5--5--5-|-9--9--9--9-|-7--7--7--7-|-5--5--5--5-|
A|-5--5--5--5-|-9--9--9--9-|-7--7--7--7-|-3--3--3--3-|x2
E|-3--3--3--3-|-7--7--7--7-|-5--5--5--5-|------------|

Chorus:

e|-3--3--3--3-|-7--7--7--7-7-|-5--5--5--5-|-3--3--3--3-3-|
B|-3--3--3--3-|-7--7--7--7-7-|-5--5--5--5-|-5--5--5--5-5-|
G|-4--4--4--4-|-8--8--8--8-8-|-6--6--6--6-|-5--5--5--5-5-|
D|-5--5--5--5-|-9--9--9--9-9-|-7--7--7--7-|-5--5--5--5-5-|
A|-5--5--5--5-|-9--9--9--9-9-|-7--7--7--7-|-3--3--3--3-3-|x2
E|-3--3--3--3-|-7--7--7--7-7-|-5--5--5--5-|--------------|

Verse:

e|-3--3--3--3-|-7--7--7--7-|-5--5--5--5-|-3--3--3--3-|
B|-3--3--3--3-|-7--7--7--7-|-5--5--5--5-|-5--5--5--5-|
G|-4--4--4--4-|-8--8--8--8-|-6--6--6--6-|-5--5--5--5-|
D|-5--5--5--5-|-9--9--9--9-|-7--7--7--7-|-5--5--5--5-|
A|-5--5--5--5-|-9--9--9--9-|-7--7--7--7-|-3--3--3--3-|
E|-3--3--3--3-|-7--7--7--7-|-5--5--5--5-|------------|

e|-3--3--3--3-|-7--7--7--7-|-5---3---|
B|-3--3--3--3-|-7--7--7--7-|-5---5---|
G|-4--4--4--4-|-8--8--8--8-|-6---5---|
D|-5--5--5--5-|-9--9--9--9-|-7---5---|
A|-5--5--5--5-|-9--9--9--9-|-7---3---|
E|-3--3--3--3-|-7--7--7--7-|-5-------|


Chorus x1

Piano Solo

e|-3--3--3--3-|-7--7--7--7-7-|-5--5--5--5-|-3--3--3--3-3-|
B|-3--3--3--3-|-7--7--7--7-7-|-5--5--5--5-|-5--5--5--5-5-|
G|-4--4--4--4-|-8--8--8--8-8-|-6--6--6--6-|-5--5--5--5-5-|
D|-5--5--5--5-|-9--9--9--9-9-|-7--7--7--7-|-5--5--5--5-5-|
A|-5--5--5--5-|-9--9--9--9-9-|-7--7--7--7-|-3--3--3--3-3-|
E|-3--3--3--3-|-7--7--7--7-7-|-5--5--5--5-|--------------|

e|-3--3--3--3--3--3--3--3-3-|  |-5-5-5-5-|-3----|
B|-3--3--3--3--5--5--5--5-5-|  |-5-5-5-5-|-5----|
G|-4--4--4--4--5--5--5--5-5-|  |-6-6-6-6-|-5----|
D|-5--5--5--5--5--5--5--5-5-|  |-7-7-7-7-|-5----|
A|-5--5--5--5--3--3--3--3-3-|x3|-7-7-7-7-|-3----|
E|-3--3--3--3---------------|  |-5-5-5-5-|------|

Chorus x1
 
e|-3----|-7----|-8---|-6---|-3---|-7---|-8----|-5--3--3---|
B|-3----|-7----|-8---|-6---|-3---|-7---|-8----|-5--5--3---|
G|-6----|-8----|-9---|-7---|-4---|-8---|-9----|-6--5--4---|
D|-5----|-9----|-10--|-8---|-5---|-9---|-10---|-7--5--5---|
A|-5----|-9----|-10--|-8---|-5---|-9---|-10---|-7--3--5---|
E|-3----|-7----|-8---|-6---|-3---|-7---|-8----|-5-----3---|
Tap to rate this tab
# A B C D E F G H I J K L M N O P Q R S T U V W X Y Z