Song name
# A B C D E F G H I J K L M N O P Q R S T U V W X Y Z

Matt Costa - Desires Only Fling tab

Desire's Only Fling
Matt Costa

This song is done with a 12 string guitar... but it sounds pretty good on a 6 string.  I
the Chorus is pretty good, but I may have messed up a little...  I don't know.  The
sounds good, but it's done with simplicity in mind...  The other Desire's Only Fling tab 
be better.  If you want to combine it... combine it.  If not... whatever.  Peace out.

Intro:
e|------------------------|
B|----5/0--1--0-----------|
G|---------------2--------|
D|------------------5--4--|
A|----7/2--3--2--0--------|
E|------------------3--2--|

Verse:
e|----------0------------3------------5------------0------------2------------0--------------2------------|
B|-------------------------------------------------------------------------------------------------------|
G|-------0------------4------------6------------0------------4------------0--------------4---------------|
D|-------------------------------------------------------------------------------------------------5--4--|
A|-------------------------------------------3--------3---2--------2---3--------3---0h2--------2---------|
E|----0--------0---3--------3---5--------5---------------------------------------------------------3--2--|

Chorus:
e|----------0------------0------------2------------2------------3------|
B|---------------------------------------------------------------------|
G|-------0-----0------0-----0------2-----2------2-----0------0-----0---|
D|------------------------------0------------0-------------------------|
A|----2------------2---------------------------------------------------|
E|--------------------------------------------------------3------------|

e|---------3------------2------------2------------0------------2-------|
B|---------------------------------------------------------------------|
G|------0-----0------4-----4------4-----4------0-----0------4-----4----|
D|---------------------------------------------------------------------|
A|----------------2------------2------------3------------2-------------|
E|---3-----------------------------------------------------------------|

Bridge (Chords)
Strumming Pattern:  v  v  v  v^

      Em  D/F#  G    A

e|    0    0    0    0
B|    0    3    3    3
G|    0    2    0    3
D|    2    0    0    3
A|    2    0    x    0
E|    0    2    3    0
Tap to rate this tab
 
# A B C D E F G H I J K L M N O P Q R S T U V W X Y Z