Song name
# A B C D E F G H I J K L M N O P Q R S T U V W X Y Z

Matt Costa - Song We Sing tab

Im not sure about that but nobody decide to tab this song. PLease, send all the missing parts!

--------------------------------------------|
--------------------------------------------|
--------------------------------------------|
--------------------------------------------|
--7--7-5-3-1---0-1-3-1-----0--1-3-1--0-0----|
--------------------------------------------|


----------------------00------------------0-0-0----|
----------------------22-----1-------1----2-2-2----|
--------0----------2--22-----0-------0----2-2-2----|
----2-----2------2-----------2----2--2----2-2-2----|
--3------------0-----------3-3--3---------0-0-0----|
------3--------------------------------------------|
Tap to rate this tab
 
# A B C D E F G H I J K L M N O P Q R S T U V W X Y Z