Song name
# A B C D E F G H I J K L M N O P Q R S T U V W X Y Z

Matt Costa - Keep On Goin tab

Chorus is same progression with bass note of each chord played before the chord


****CAPO1**** tab relative to capo



e|-------2------------------------3---------------------0-----------------------|
B|--3------3--------------3----------3-----------1---------1--------------------|
G|----2-------2---------------0--------0------------0---------0-----------------|
D|0--------------0------------------------0----------------------2--------------|
A|---------------------------------------------3--------------------------------|
E|--------------------3---------------------------------------------------------|

e|--------------------------|
B|----------3------------5--|
G|--------------------------|                                  x4
D|-----4------------6-------|
A|5-------------7-----------|
E|--------------------------|
         D          G          C  slide   D# slide  F
e|-------2----------3----------0----------0---------0--|
B|-------3----------3----------1----------3---------5--|
G|-------2----------0----------0----------0---------0--|x8
D|-------0----------0----------2----------4---------6--|
A|-------x----------2----------3----------6---------7--|
E|-------x----------3----------0----------0---------x--|
-------------------------------------------------------|
Tap to rate this tab
# A B C D E F G H I J K L M N O P Q R S T U V W X Y Z