Song name
# A B C D E F G H I J K L M N O P Q R S T U V W X Y Z

Matt Costa - Tv Gods tab

Help us improve GuitareTab! Take a short survey!
----------------------------------------------------------------------------
			     SONG NAME - Band Name
----------------------------------------------------------------------------
Tabbed by: Taylor Bradshaw
Email: Terminotter@optonline.net

Tuning: open D-minor, DADFAD 

This song is played using a guitar slide.

All together, its:

Main Riff, 4x
Riff 2,    1x
Main Riff, 4x
Riff 3,    1x
Main Riff, 4x
Riff 4,    1x
Riff 5,    2x

The rest of the song is just a different combination of those, but its extemely easy to figure out.

Main Riff:
D|-------------------------------------------------------------------------|
A|-------------------------------------------------------------------------|
F|-------------------------------------------------------------------------|
D|--------(0)-------(0)--3/5-----2/3---------------------------------------|
A|------------(0)----------------------------------------------------------|
D|----(0)----------------3/5--0--2/3--0------------------------------------|


Riff 2: 
(in the slide from 7 to 0, it is alternate picking.)
D|-------------------------------------------------------------------------|
A|-------------------------------------------------------------------------|
F|-------------------------------------------------------------------------|
D|----3///////5-------7///////0--------------------------------------------|
A|--------------------7///////0--------------------------------------------|
D|----3///////5-------7///////0--------------------------------------------|

Riff 3:
D|-------------------------------------------------------------------------|
A|-------------------------------------------------------------------------|
F|------0-------0-------0-------0------------------------------------------|
D|----------0-------0-------0-------0--------------------------------------|
A|-------------------------------------------------------------------------|
D|----0---0---0---0---0---0---0---0----------------------------------------|

Riff 4:
D|-------------------------------------------------------------------------|
A|-------------------------------------------------------------------------|
F|-------------------------------------------------------------------------|
D|----3-3-3-3-3-3-3-3-5-5-5-5-5-5-5-5-0-(let Ring)-7/(alternate picking)/0-|
A|----3-3-3-3-3-3-3-3-5-5-5-5-5-5-5-5--------------7/(alternate picking)/0-|
D|----3-3-3-3-3-3-3-3-5-5-5-5-5-5-5-5--------------7/(alternate picking)/0-|

Riff 5:
D|-------------------------------------------------------------------------|
A|-------------------------------------------------------------------------|
F|-------------------------------------------------------------------------|
D|----0---0---0---0--7/(alternate picking)/0-------------------------------|
A|-------------------7/(alternate picking)/0-------------------------------|
D|--0---0---0---0----7/(alternate picking)/0-------------------------------|


| () Palm-muted
| /  slide up
| \  slide down
| h  hammer-on
| p  pull-off
| ~  vibrato
| +  harmonic
| x  Mute note
============================================================================
Related for Tv Gods tab