Song name
# A B C D E F G H I J K L M N O P Q R S T U V W X Y Z

Matt Costa - Sweet Rose tab

capo on the 1st fret


e-------------------------------------------|
b-------------------------------------------|
g--------2----------------------------------|
d--0-1-2------------------------------------|
a--0----------------------------------------|
e----------0-2-4----------------------------|

then the first guitar is playing the chords and sec. guitar is playing that:

e-----------------------------------------------------------------------|
b--5-5------------------------------------------------------------------|
g-------7-6-4--4-6-6-6h7----4-4-4h6--4---7-6-4-6--4--7-6-4--------------|
d-------------------------7------------7-------------------7--------4-6-|
a-------------------------------------------------------------7-7-7-----|
e-----------------------------------------------------------------------|

I recomend you play it with the song because it's not that hard to play and it's easier 
catch the groove like that.

anything you'd like to say please send to:
omrimeir1@walla.com
Tap to rate this tab
 
# A B C D E F G H I J K L M N O P Q R S T U V W X Y Z