Song name
# A B C D E F G H I J K L M N O P Q R S T U V W X Y Z

Matt Finish - Short Note tab

Short Note - Matt Finish

This is my first TAB, so please bear with me :)

INTRO:

   Dsus2  A/D  E/A  Fmaj7  Gadd9  Asus2  A5  G6  Gadd9/A  D/A
E|---0-----0----0-----0------5------0--------0-----5-------5--|
B|---3-----2----0-----1------3------0--------3-----3-------7--|
G|---2-----2----1-----2------4------2----2---4-----4-------7--|
D|---0-----0----2-----3------5------2----2---5-----5-------7--|
A|--------------0-------------------0----0---------0----------|
E|-------------------(1)----(3)-------------(3)---------------|



VERSE:
               6-String
       Dmaj9               Amaj9
   1 + 2 + 3 + 4 +   1 + 2 + 3 + 4 + 
E|-------0---------|---0---0-----0---|
B|-3---3---2---3=2-|---------0-----0-|
G|---2-------2-----|-2===1-----1-----|
D|-0-----------0---|---2---------2---|
A|-----------------|-0---------------|
E|-----------------|-----------------|


CHORUS:
         Fmaj7             Gadd9             Asus2      A5       Asus2
   1 + 2 + 3 + 4 +   1 + 2 + 3 + 4 +   1 + 2 + 3 + 4 +   1 + 2 + 3   4
E|-------0---------|-------5---------|---------0-------|-----------------|
B|-----1---1-------|-----3---3-------|-------0---0-----|---------0---0---|
G|---2-------2---2-|---4-------4---4-|-----2-------2---|-2-2-2-2-2---2---|
D|-3-----------3---|-5-----------5---|---2-----------2-|-2-2-2-2-2---2---|
A|-----------------|-----------------|-0---------------|-0-0-0-0-0-------|
E|-----------------|-----------------|-----------------|-------------3*--|


         Fmaj7             G6             Gadd9/A              D/A
   1 + 2 + 3 + 4 +   1 + 2 + 3 + 4 +   1   2   3   4     1 
E|-------0---------|-------0---------|-5---------------|-5---------------|
B|-----1---1-------|-----3---3-------|-4---------------|-7---------------|
G|---2-------2---2-|---4-------4-----|-3---------------|-7---------------|
D|-3-----------3---|-5-----------5---|-5---------------|-7---------------|
A|-----------------|-----------------|-0---------------|-----------------|
E|-----------------|-----------------|-----------------|-----------------|


http://www.mattfinish.net/
Written by chuggs22
Tap to rate this tab
# A B C D E F G H I J K L M N O P Q R S T U V W X Y Z