Song name
# A B C D E F G H I J K L M N O P Q R S T U V W X Y Z

Matt Gilman - Holy tab

Intro:
E|---------------------------------------------------------|
B|--------10----10--------------------11-10----------------|
G|-----10----------12----12-----------------12----12----12-|
D|--12-------12-------12-----------12----------12----12----|
A|---------------------------10-10-------------------------|
E|---------------------------------------------------------|

E|----------------------------------------|
B|---------10----------10-----------------|
G|------10----10----12----10-------10-12--|
D|---------------10----------10-10--------|
A|---12-----------------------------------|
E|----------------------------------------|


Chords for the whole song are:

Dm   Gm   F   Am
Tap to rate this tab
 
# A B C D E F G H I J K L M N O P Q R S T U V W X Y Z