Song name
# A B C D E F G H I J K L M N O P Q R S T U V W X Y Z

Matt Hires - Honey Let Me Sing You A Song tab

CAPO 2nd Fret

Put your fingers in C major:

------------------|
-----3-------3----|
---------0--------|
------------------|
---5---5---5------|
------------------|   x4

then slide up to:

-----------------|
-----1-------1---|
---------0-------|
-----------------|
---3---3---3-----|
-----------------|  x4

next is the same thing as before:

------------------|
-----3-------3----|
---------0--------|
------------------|
---5---5---5------|
------------------|   x4


then slide up to:
-----------------|
-----1-------1---|
---------0-------|
-----------------|
---3---3---3-----|
-----------------|  x4
Tap to rate this tab
 
# A B C D E F G H I J K L M N O P Q R S T U V W X Y Z