Song name
# A B C D E F G H I J K L M N O P Q R S T U V W X Y Z

Matt Maher - Adoration Tantum Ergo tab

---------------------------------------------------------------------------
    Adoration - Matt Maher
---------------------------------------------------------------------------
Tabbed by: Jason
Email: BunnyTownJ@aol.com

Tuning: Standard
This is a great  song but takes a while to memorize. I think it sounds almost
perfect the the real song.

Capo on 6! Everything relative to capo.

e|--------------------------------------------------------------------------|
B|------------------0--------------------0-----1------0---------------------|
G|----0------2-------------0------2-----------------------------------------|
D|--------------------------------------------------------------------------|
A|--------------------------------------------------------------------------|
E|-------3------3------3------3------3------3------3------3-----------------|


e|----0---------------------------------------------------------------------|
B|-----------3------1-----0-------------------------------------------------|
G|-------------------------------2-------2------0-----0---------------------|
D|--------------------------------------------------------------------------|
A|--------------------------------------------------------------------------|
E|-------3------3------3------3------3------3------3------3-----------------|

e|----3------2------3-------------0-----------------------------------------|
B|-------------------------3-------------3------1-----0---------------------|
G|--------------------------------------------------------------------------|
D|--------------------------------------------------------------------------|
A|--------------------------------------------------------------------------|
E|-------3------3------3------3------3------3------3------3-----------------|

e|---0-------2------3------2-----0------0-----------------------------------|
B|---------------------------------------------3------3---------------------|
G|--------------------------------------------------------------------------|
D|--------------------------------------------------------------------------|
A|--------------------------------------------------------------------------|
E|-------3------3------3------3------3------3------3------3-----------------|

e|--------------------------------------------------------------------------|
B|---3------3------0---------------------0-----1------0---------------------|
G|-------------------------0------2-----------------------------------------|
D|--------------------------------------------------------------------------|
A|--------------------------------------------------------------------------|
E|-------3------3------3------3------3------3------3------3-----------------|


e|----0---------------------------------------------------------------------|
B|-----------3------1-----0-------------------------------------------------|
G|-------------------------------2-------2------0-----0---------------------|
D|--------------------------------------------------------------------------|
A|--------------------------------------------------------------------------|
E|-------3------3------3------3------3------3------3------3-----------------|
Tap to rate this tab
# A B C D E F G H I J K L M N O P Q R S T U V W X Y Z