Song name
# A B C D E F G H I J K L M N O P Q R S T U V W X Y Z

Matt Maher - Just Like You tab

since no one wants to tab John Wests songs i will take the responsibility of doing 
is a relatively new song from John West, so not many West fans have heard it.RIGHT3ousKUngfU!

this is the youtube video if you havent heard it yet:
http://www.youtube.com/watch?v=f7KBWpQGWAU


e|-------------------------|---1-------------------------------------|
B|-------------------------|---1-------------------3-3-3-3-----------|
G|-------------------------|---2-------------------2-2-2-2--(TAP)----|
D|-------------------------|---2-------------------3-3-3-3--(Strings)|
A|-------------------------|-----------------------1-1-1-1-----------|
E|--1-1-1-(TAP)<-(4 times)-|---------1-1-1 (tap)---------------------|

  ^use thumb to hold 1st fret. ^ hold this chord while playing (1-1-1..)

e|---------------------------------------------------------------|
B|--3-3-3-3------------------10- 10- 10-10----------4-4-4-4------|
G|--2-2-2-2--(tap strings)---9-- 9---9---9---(Tap)--3-3-3-3------|
D|--3-3-3-3------------------10- 10--10--10---------5-5-5-5------|
A|--1-1-1-1------------------8---8---8---8----------3-3-3-3------|
E|---------------------------------------------------------------|


e|--------------------------------1-1-1-1---------1-1-1-1----|
B|--3-3-3-3-------3-3-3-3---------1-1-1-1---------1-1-1-1----|
G|--2-2-2-2-(tap)-2-2-2-2-(tap)---2-2-2-2--(TAP)--2-2-2-2----| Start over.
D|--3-3-3-3-------3-3-3-3---------2-2-2-2---------2-2-2-2----|
A|--1-1-1-1-------1-1-1-1------------------------------------|
E|--------------------------------1-1-1-1---------1-1-1-1----|
Tap to rate this tab
# A B C D E F G H I J K L M N O P Q R S T U V W X Y Z