Song name
# A B C D E F G H I J K L M N O P Q R S T U V W X Y Z

Matt Maher - Great Things tab

Matt Maher now has 5 albums and is quickly establishing himself and his band as a 
figure in Christian music. He began his music ministry in LIFETEEN parishes and was prominent 
WYD08 in Sydney, Australia.

The intro bit: as close as I can get it. You'll have to listen out for the strumming pattern.

|---------------2--3-------------2--3--3--3------------------|
|--0/1---0------3--3----0-1--0---3--3--3--3------------------|
|--0-0---0------2--0----0-0--0---2--0--0--0--------x2--------|
|--0/2---2---------0----0-2--2------0--0--0------------------|
|--2/3---3---------2----2/3--3------2--3--2------------------|
|------------------3----------------3--3--3------------------|
   U D

This is the first solo following the first chorus which starts with Em, C.

|---------------------------------------------------------3--|
|------------------------------------------------------------|
|--------0-------2----2--4-2---------------0--------0--------|
|------2-------4-------------5---0------2---------4----------|
|---3-------/5------------------------3--------/5---------2--|
|------------------3----------------------------------3---3--|

This is the little run before "...and it's your name we're shouting..."

Harmonics..|
|------------------------------------------------------------|
|------------------------------------------------------------|
|-----5------------------------------------------------------|
|-------5-5------------4---/5--\4----------------------------|
|------------------5-5---5---------5---2/3-------------------|
|------------------------------------------------------------|

There is some awesome slide guitar that follows and I'm pretty sure Kenny doesn't change 
tuning for it...

Anyway, hope this increases the fun you'll have playing this song!
Tap to rate this tab
# A B C D E F G H I J K L M N O P Q R S T U V W X Y Z