Song name
# A B C D E F G H I J K L M N O P Q R S T U V W X Y Z

Matt Maher - Flesh And Bone tab

here is the solo after the bridge, and at the end of the song

e/---6-5-3--6--------------------6-5-3-5-6-8-10-13-10-13-10-10-10-10-10-10-|
B/-6----------5-5h7-5h7-5/3-3---6------------------------------------------|
G/-------------------------------------------------------------------------|
D/-------------------------------------------------------------------------|
A/-------------------------------------------------------------------------|
E/-------------------------------------------------------------------------|


this is the solo at the end of the song

e/---6-5-3--6--------------------6-5-3-5-6-8-10-13-10-13-10-10-10-10-10-10-|
B/-6----------5-5h7-5-5h7-5/3-3-6------------------------------------------|
G/-------------------------------------------------------------------------|
D/-------------------------------------------------------------------------|
A/-------------------------------------------------------------------------|
E/-------------------------------------------------------------------------|

e/---6-5-3-5-6------------------------6-5-3-5-6-8-10-8-10-8-6-5-3---------|
B/-6--------------------------------6-------------------------------------|
G/--------------5-5h7-5-5h7-5/3-3-----------------------------------------|
D/------------------------------------------------------------------------|
A/------------------------------------------------------------------------|
E/------------------------------------------------------------------------|

e/---6-5-3-5-6------------------------6-5-3-5-6-8-6-----------------------|
B/-6--------------------------------6-------------------------------------|
G/-------------5-5h7-5-5h7-5/3-3------------------------------------------|
D/------------------------------------------------------------------------|
A/------------------------------------------------------------------------|
E/------------------------------------------------------------------------|
Tap to rate this tab
 
# A B C D E F G H I J K L M N O P Q R S T U V W X Y Z