Matt Maher - Your Grace Is Enough tab

Here is kenny's part which is the intro and pre-chorus chorus and ill point it all out

if you listen closley, there is a capo on 1

Capo 1

realative to capo 1:

intro
e-------------------------------------------------------------|
B-888--10-10--77-88-10-10-77-88-88-77-55-33--88-77-88--12-12--|
G-000--0--0---00-00-0--0--00-00-00-00-00-00--00-00-00--0--0---|
D-------------------------------------------------------------|
A-------------------------------------------------------------|
E-------------------------------------------------------------|

intro
e-----------------------------------------------------------------------------|
B-888--10-10--77-88-10-10-77-888-12-12-12-12-12-10-10-12-12-12-12-12-12-10-10-|
G-000--0--0---00-00-0--0--00-000-0--0--0--0--0-00--0--0--0--0--0--0--0--0--0--|
D-----------------------------------------------------------------------------|
A-----------------------------------------------------------------------------|
E-----------------------------------------------------------------------------|


"remember your promise oh God"

B-55555-77777-88888-888----------------------------|
G-00000-00000-00000-000----------------------------|

i have my gutarist play:
Em,C,G,D
Em,G,D
for the chorus with distortion and it works out fine on stage

"you use the weak to lead the strong.. ..."
B-88-77-55-7-3-------------------------------------|
G-00-00-00-0-0-------------------------------------|


then the pre-shorus tab, chorus chords with distortion
pre-chorus tab,

then thw outro which it=s the intro, but at the end, you can hear kenny go up to the 
13th fret, so have fun with it, this is thw whole lead part, its just acoutstic and bass 
the rest, so have fun and praise Jesus, ill tab the outro to show what i mean

e-------------------------------------------------------------|
B-888--10-10--77-88-10-10-77-88-88-77-55-33--88-77-88--12-12--|
G-000--0--0---00-00-0--0--00-00-00-00-00-00--00-00-00--0--0---|
D-------------------------------------------------------------|
A-------------------------------------------------------------|
E-------------------------------------------------------------|

e-----------------------------------------------------------------------------|
B-888--10-10--77-88-10-10-77-888-12-12-12-12-12-10-10-12-12-12-12-12-12-13-13-|
G-000--0--0---00-00-0--0--00-000-0--0--0--0--0-00--0--0--0--0--0--0--0--0--0--|
D-----------------------------------------------------------------------------|
A-----------------------------------------------------------------------------|
E-----------------------------------------------------------------------------|

that is kennys lead part, have fun with it
Tap to rate this tab
 
# A B C D E F G H I J K L M N O P Q R S T U V W X Y Z