Song name
# A B C D E F G H I J K L M N O P Q R S T U V W X Y Z

Matt Maher - Rise Up tab

Here is the catchy intro guitar part.

e|----------------|----------------|
B|9---7---9---7---|----------------|
G|------8-------8-|6---4-8-6-4-1-4-|
D|----------------|----------------|
A|----------------|----------------|
E|----------------|----------------|

e|----------------|----------------|
B|9---7---9---7---|----------------|
G|------8-------8-|6---4-8-6-4-9-8-|
D|----------------|----------------|
A|----------------|----------------|
E|----------------|----------------|

Please do not post this anywhere else.
Enjoy
Tap to rate this tab
 
# A B C D E F G H I J K L M N O P Q R S T U V W X Y Z