Song name
# A B C D E F G H I J K L M N O P Q R S T U V W X Y Z

Matt Maher - Void tab

-------------------------------------------------------------------------------
			     Void - Void
-------------------------------------------------------------------------------
Tabbed by: Kyle L.
Email: theslip27@gmail.com

Tuning: Half-Step Down

e|------3--2----------------------------------------------------|
B|------------3-------------------------------------------------|
G|---------------4----------------------------------------------|
D|--------------------------4--5--0---2-------------------------|
A|--------------------------------------------------------------|
E|--0---------0--0----------0--0--0---0-------------------------|

e|--------------------------------------------------------------|
B|--------------------------------------------------------------|
G|--------------------------4--7--4-----------------------------|
D|-----------------------------------7---6----------------------|
A|--3--4--0---2-------------0--0--0--0--------------------------|
E|--0--0--0---0--------------------------0----------------------|

===============================================================================
Tap to rate this tab
 
# A B C D E F G H I J K L M N O P Q R S T U V W X Y Z