Song name
# A B C D E F G H I J K L M N O P Q R S T U V W X Y Z

Matt Mays And El Torpedo - Building A Boat tab

Matt Mays & El Torpedo
Building a Boat
tabbed by:guitarbass13
Hope you like it! 


main riff
[---------------------------------------------|
[-2-2-2-2-2-2-2-3p2-----2-2-2-2-2-2-2-3p2-----|
[-2-2-2-2-2-2-2-2---4p2-2-2-2-2-2-2-2-2---4p2-|
[-2-2-2-2-2-2-2-----2---2-2-2-2-2-2-2-2-------|
[-0-0-0-0-0-0-0---------0-0-0-0-0-0-0-0-------|
[---------------------------------------------|


The cords of the Chorus simply goes

D, A, E, D



Riff after the Chorus
[---------------------------------]
[---------------------------------]   
[---------------------------------]   
[---------------------------------]   
[---------------------------------]   
[-0h5-0h5-0h5-0h5-0h5-0h5-0h5-0h5-]  



Guitar solo
[-----------------------------------------]
[-----------------------------------------]
[-7h9b-7h9b-7h9b-7h9b-7h9b-7h9b-7h9b-7h9b-]
[-----------------------------------------]
[-----------------------------------------]
[-----------------------------------------]
 
Tap to rate this tab
 
# A B C D E F G H I J K L M N O P Q R S T U V W X Y Z