Song name
# A B C D E F G H I J K L M N O P Q R S T U V W X Y Z

Matt Mays And El Torpedo - Cocaine Cowgirl tab

Hello everyone. This is my first attempt at tabbing. I've noticed,
while learning "Cocaine Cowgirl" by Matt Mays and El Torpedo, that not one
tab has the correct intro. However, for all you who can't stand not being
able to find the right tabs, here is a version I've worked out that sounds
almost identical to the origional song.

Matt Mays & El Torpedo
Cocaine Cowgirl - Intro

|-------3-----2-----0------------------------------|
|-----0-------------------3-----1-----0------------|
|---0-------0-----0-----0-----0-----0-----0-2--2-0-|
|-2-------2-----2-----2-----2-----2-----2----------|
|--------------------------------------------------|
|--------------------------------------------------|

|-------3-----2-----0------------------------------|
|-----0-------------------3-----1------------------|
|---0-------0-----0-----0-----0-----0-2--2-2-------|
|-2-------2-----2-----2-----2-----2---2--2-2-------|
|-------------------------------------0--0-0-------|
|--------------------------------------------------|

|-------3-----2-----0------------------------------|
|-----0-------------------3-----1-----0------------|
|---0-------0-----0-----0-----0-----0-----0-2--2-0-|
|-2-------2-----2-----2-----2-----2-----2----------| --> Repeat twice
|--------------------------------------------------|
|--------------------------------------------------|

Also, here is a way to make playing this song on your own sound much more
accurate to the real song when playing the Em-C-G interlude between the
verses. I know it seems obvious but hey, its all about how the music sounds.

  Em               C            G  
|-0---3---2---0----0---0---0----3-----------------| 
|-0---0---0---0----3---1---0----0-----------------| 
|-0---0---0---0----0---0---0----0-----------------| -->The strumming pattern
|-2---2---2---2----3---3---3----2-----------------|    is up to you,listen  
|-2---2---2---2----2---2---2----0-----------------|    to the song.
|-0---0---0---0----0---0---0----3-----------------|

Anyways I hope that this tab is helpfull to all those who love music a much
as I do. "I Rock, Therefore I Am" -> R-4-L 
Tap to rate this tab
 
# A B C D E F G H I J K L M N O P Q R S T U V W X Y Z