Song name
# A B C D E F G H I J K L M N O P Q R S T U V W X Y Z

Matt Mays - Rock Ranger Record tab

Super awesome and easy song by Matt Mays and El Torpedo! Kinda reminds me of The 
Ramones! Comment if ya want!

Intro
------|
------|
------|
-7----|
-7----|
-5----| x20

Verse (this is actually only bass for the first half but it sounds cool palm muted)
------------------------------------------------------------------------|
------------------------------------------------------------------------|
----7--6-------7--6-----------------------------------------------------|
-7--7--6----7--7--6----4-2--7-7-----------------------------------------|
-7--5--4----7--5--4----4-2--7-7-----------------------------------------|
-5----------5----------2-0--5-5-----------------------------------------|

Chorus
-------------------------------------------------------------------------|
-------------------------------------------------------------------------|
-7-----9-------7--9-------7--6-------------------------------------------|
-7-----9--7----7--9--7----7--6--4-2--7-----------------------------------|
-5-----7--7----5--7--7----5--4--4-2--7-----------------------------------|
----------5----------5----------2-0--5-----------------------------------|


You're going to have to figure out the number of times to play each of those power 
chords yourself.  :(
Between the second verse and the chorus, strum the E power chord (7th fret, A string) a 
few times. During the solo you just play the verse.
Tap to rate this tab
# A B C D E F G H I J K L M N O P Q R S T U V W X Y Z