Song name
# A B C D E F G H I J K L M N O P Q R S T U V W X Y Z

Matt Mays - City Of Lakes tab

Help us improve GuitareTab! Take a short survey!
city of lakes
matt mays
tabbed by: jared hyslop
pretty sure about this one.. guitars mashing in with each other makes it hard.

intro:
|---3------------33-----------------3----------------------------|
|---3-xx---------33-xx--------------3----------------------------|
|-----xx---------00-xx-3535-50----------7h9p7p0------------------|
|-2---xx-55----5-00-xx----------1\2---55--------2----------------|
|-2------xx-3h5--22-------------1\2---xx--------2----------------|
|-0------33------33-------------0(0)--33--------0-5h7-5h7-5h7-5h7|
         **
play the chords repeatedly:
|-----3------------------|-----3---3--------------|
|---5-3------------------|---5-3---3--------------|
|---5-0-/7770------------|---5-0---0--------------|
|-2-5-0------------------|-2-5-0---0--------------|
|-2-x-2------------------|-2-x-2---2--------------|
|-0-3-3------------------|-0-3-3-3-3--------------|

verses:
|-----3------------------|
|---5-3------------------
|---5-0------------------|
|-2-5-0------------------|
|-2-x-2------------------|
|-0-3-3------------------|

chorus:
|-2---3---------------|
|-3-1-3---------------|
|-2-0-0---------------|
|---2-0---------------|
|---3-3---------------|
|-----3---------------|

thats pretty much it.
Related for City Of Lakes tab