Guitaretab - guitar tabs
Song name
# A B C D E F G H I J K L M N O P Q R S T U V W X Y Z

Matt Mays - Travellin tab

From Matt Mays & El Tordepo
tabbed by Steve Degen.. steve_degen@hotmail.com
standard tuning

Chords Used
  C    Am   F    G    C5   A5   F5
[-0-][-0-][-1-][-3-][---][---][---]
[-1-][-1-][-1-][-3-][---][---][---]
[-0-][-2-][-2-][-0-][-5-][-2-][---]
[-2-][-2-][-3-][-0-][-5-][-2-][-3-]
[-3-][-0-][-3-][-2-][-3-][-0-][-3-]
[-0-][---][-1-][-3-][---][---][-1-]

For this song the best bet is probably to play the power chords for 
the versus because they're palm muted and play the normal chords for
the chorus

This is the palm muted part that Jarrett plays
[-----------------------------------------------------------------]
[-----------------------------------------------------------------]
[-5-5-5-2-2-2-2-2-------5-5-5-5-5-5-5-5-2-2-2-2-2-------5-5-5-5-5-]
[-5-5-5-2-2-2-2-2-3-3-3-5-5-5-5-5-5-5-5-2-2-2-2-2-3-3-3-5-5-5-5-5-]
[-3-3-3-0-0-0-0-0-3-3-3-3-3-3-3-3-3-3-3-0-0-0-0-0-3-3-3-3-3-3-3-3-]
[-----------------1-1-1---------------------------1-1-1-----------]

You can play the above intro using the real chords, I just find it 
sounds better with the heavier sound, which is how they play it live

Matt's Riff

[----8-------8---8----------------------------------------0-]
[-\8---8-------8---8h10-8--------8------------------------1-]
[--------9h10-------------9h10-9---9/7/5------------------0-]
[----------------------------------------5h7-7p5---5------2-]
[------------------------------------------------7---5h7--3-]
[---------------------------------------------------------0-]

Jarrett plays the palm muted part through this riff, but plays the 
last F and C in the normal chord position and lets them ring. When 
Matt hits that C at the end of the Riff thats when Jarrett is hiting it
you'll notice other parts of the song where this occurs so listen for 
them.

Goodbye girl, gone to see the world. Out to see everything but me

[-----------------------------------------------------------------]
[-----------------------------------------------------------------]
[-5-5-5-2-2-2-2-2-------5-5-5-5-5-5-5-5-2-2-2-2-2-------5-5-5-5-5-]
[-5-5-5-2-2-2-2-2-3-3-3-5-5-5-5-5-5-5-5-2-2-2-2-2-3-3-3-5-5-5-5-5-]
[-3-3-3-0-0-0-0-0-3-3-3-3-3-3-3-3-3-3-3-0-0-0-0-0-3-3-3-3-3-3-3-3-]
[-----------------1-1-1---------------------------1-1-1-----------]

Your letters aint coming that much anymore. Your letters aint coming
at all

[-------------------------------------------------1--0-]let these 
[-------------------------------------------------1--1-]last 2 ring
[-5-5-5-2-2-2-2-2-------5-5-5-5-5-5-5-5-2-2-2-2-2-2--0-]
[-5-5-5-2-2-2-2-2-3-3-3-5-5-5-5-5-5-5-5-2-2-2-2-2-3--2-]
[-3-3-3-0-0-0-0-0-3-3-3-3-3-3-3-3-3-3-3-0-0-0-0-0-3--3-]
[-----------------1-1-1---------------------------1--0-]

[----8-------8---8----------------------------------------0-]
[-\8---8-------8---8h10-8--------8------------------------1-]
[--------9h10-------------9h10-9---9/7/5------------------0-]
[----------------------------------------5h7-7p5---5------2-]
[------------------------------------------------7---5h7--3-]
[---------------------------------------------------------0-]

Now I've been to Memphis, I've been to Rome. Because you were here
I came back home.

[-----------------------------------------------------------------]
[-----------------------------------------------------------------]
[-5-5-5-2-2-2-2-2-------5-5-5-5-5-5-5-5-2-2-2-2-2-------5-5-5-5-5-]
[-5-5-5-2-2-2-2-2-3-3-3-5-5-5-5-5-5-5-5-2-2-2-2-2-3-3-3-5-5-5-5-5-]
[-3-3-3-0-0-0-0-0-3-3-3-3-3-3-3-3-3-3-3-0-0-0-0-0-3-3-3-3-3-3-3-3-]
[-----------------1-1-1---------------------------1-1-1-----------]

Now I aint tryin to place any blame, but I came back for you and I'd
expect you'd do the same for me

[-------------------------------------------------1-1-1-0-3-3-3-3-3-3-]
[-------------------------------------------------1-1-1-1-3-3-3-3-3-3-]
[-5-5-5-2-2-2-2-2-------5-5-5-5-5-5-5-5-2-2-2-2-2-2-2-2-0-0-0-0-0-0-0-]
[-5-5-5-2-2-2-2-2-3-3-3-5-5-5-5-5-5-5-5-2-2-2-2-2-3-3-3-2-0-0-0-0-0-0-]
[-3-3-3-0-0-0-0-0-3-3-3-3-3-3-3-3-3-3-3-0-0-0-0-0-3-3-3-3-2-2-2-2-2-2-]
[-----------------1-1-1---------------------------1-1-1-0-3-3-3-3-3-3-]


Travellin, Travellin So. So Far Away

      C         F      C      G        Am      F
[-0-0-0-0-0--1-1-1-1--0-0--3-3-3-3--0-0-0-0--1-1-1--0-]
[-1-1-1-1-1--1-1-1-1--1-1--3-3-3-3--1-1-1-1--1-1-1--1-]
[-0-0-0-0-0--2-2-2-2--0-0--0-0-0-0--2-2-2-2--2-2-2--0-]
[-2-2-2-2-2--3-3-3-3--2-2--0-0-0-0--2-2-2-2--3-3-3--2-]
[-3-3-3-3-3--3-3-3-3--3-3--2-2-2-2--0-0-0-0--3-3-3--3-]
[-0-0-0-0-0--1-1-1-1--0-0--3-3-3-3-----------1-1-1--0-]


If your coming home, you better leave now, you better leave now
[ Tab from: http://www.guitaretab.com/m/matt-mays/62916.html ]
      C         F      C      G        Am      F    C
[-0-0-0-0-0--1-1-1-1--0-0--3-3-3-3--0-0-0-0--1-1-1--0-]
[-1-1-1-1-1--1-1-1-1--1-1--3-3-3-3--1-1-1-1--1-1-1--1-]
[-0-0-0-0-0--2-2-2-2--0-0--0-0-0-0--2-2-2-2--2-2-2--0-]
[-2-2-2-2-2--3-3-3-3--2-2--0-0-0-0--2-2-2-2--3-3-3--2-]
[-3-3-3-3-3--3-3-3-3--3-3--2-2-2-2--0-0-0-0--3-3-3--3-]
[-0-0-0-0-0--1-1-1-1--0-0--3-3-3-3-----------1-1-1--0-]


[----8-------8---8----------------------------------------0-----]
[-\8---8-------8---8h10-8--------8------------------------1-----]
[--------9h10-------------9h10-9---9/7/5------------------0-3\5-]
[----------------------------------------5h7-7p5---5------2-----]
[------------------------------------------------7---5h7--3-----]
[---------------------------------------------------------0-----]


Solo

[-------------------------------------------------8-10br-8-]
[--------------------------------------5-5\8-8\10----------]
[-------------------------------\5-5-7---------------------]
[-10-10/9-9/7-7/5-5/3-3/2-2h3-3----------------------------]
[----------------------------------------------------------]
[----------------------------------------------------------]

[----------------------------------------------------------------------]
[----------------------------------------------------------------------]
[-5h7h5h7h5h7h5h7h5h7h5h7h5h7h5h7-7br-5h7h5h7h5-5\7---5-5\7---5-7-7\10-]
[---------------------------------------------------7-------7----------]
[----------------------------------------------------------------------]
[----------------------------------------------------------------------]

[-------8-]
[---------]
[-9-7-5---]
[---------]
[---------]
[---------]

Good bye girl gone to see the world, out to see anything you choose

    C       Am      F    C        C     Am     F     C
[-0-0-0--0-0-0-0--1-1-1--0-------0-0--0-0-0--1-1-1--0-0-]
[-1-1-1--1-1-1-1--1-1-1--1-------1-1--1-1-1--1-1-1--1-1-]
[-0-0-0--2-2-2-2--2-2-2--0-----0-0-0--2-2-2--2-2-2--0-0-]
[-2-2-2--2-2-2-2--3-3-3--2-0h2---2-2--2-2-2--3-3-3--2-2-]
[-3-3-3--0-0-0-0--3-3-3--3-------3-3--0-0-0--3-3-3--3-3-]
[-0-0-0-----------1-1-1--0-------0-0---------1-1-1--0-0-]


Now its becomin so clear, it's becoming so clear. That your feet
are planted deep in your travellin shoes

[-------------------------------------------------1-1-1-0-3-3-3-3-3-3-]
[-------------------------------------------------1-1-1-1-3-3-3-3-3-3-]
[-5-5-5-2-2-2-2-2-------5-5-5-5-5-5-5-5-2-2-2-2-2-2-2-2-0-0-0-0-0-0-0-]
[-5-5-5-2-2-2-2-2-3-3-3-5-5-5-5-5-5-5-5-2-2-2-2-2-3-3-3-2-0-0-0-0-0-0-]
[-3-3-3-0-0-0-0-0-3-3-3-3-3-3-3-3-3-3-3-0-0-0-0-0-3-3-3-3-2-2-2-2-2-2-]
[-----------------1-1-1---------------------------1-1-1-0-3-3-3-3-3-3-]


Travellin, travellin so, So Far away

      C         F      C      G        Am      F
[-0-0-0-0-0--1-1-1-1--0-0--3-3-3-3--0-0-0-0--1-1-1--0-]
[-1-1-1-1-1--1-1-1-1--1-1--3-3-3-3--1-1-1-1--1-1-1--1-]
[-0-0-0-0-0--2-2-2-2--0-0--0-0-0-0--2-2-2-2--2-2-2--0-]
[-2-2-2-2-2--3-3-3-3--2-2--0-0-0-0--2-2-2-2--3-3-3--2-]
[-3-3-3-3-3--3-3-3-3--3-3--2-2-2-2--0-0-0-0--3-3-3--3-]
[-0-0-0-0-0--1-1-1-1--0-0--3-3-3-3-----------1-1-1--0-]


If your coming home, you better leave now, you better leave now

      C         F      C      G        Am      F    C
[-0-0-0-0-0--1-1-1-1--0-0--3-3-3-3--0-0-0-0--1-1-1--0-]
[-1-1-1-1-1--1-1-1-1--1-1--3-3-3-3--1-1-1-1--1-1-1--1-]
[-0-0-0-0-0--2-2-2-2--0-0--0-0-0-0--2-2-2-2--2-2-2--0-]
[-2-2-2-2-2--3-3-3-3--2-2--0-0-0-0--2-2-2-2--3-3-3--2-]
[-3-3-3-3-3--3-3-3-3--3-3--2-2-2-2--0-0-0-0--3-3-3--3-]
[-0-0-0-0-0--1-1-1-1--0-0--3-3-3-3-----------1-1-1--0-]


She's going travellin, travellin so, so far away

      C         F      C      G        Am      F    C
[-0-0-0-0-0--1-1-1-1--0-0--3-3-3-3--0-0-0-0--1-1-1--0-]
[-1-1-1-1-1--1-1-1-1--1-1--3-3-3-3--1-1-1-1--1-1-1--1-]
[-0-0-0-0-0--2-2-2-2--0-0--0-0-0-0--2-2-2-2--2-2-2--0-]
[-2-2-2-2-2--3-3-3-3--2-2--0-0-0-0--2-2-2-2--3-3-3--2-]
[-3-3-3-3-3--3-3-3-3--3-3--2-2-2-2--0-0-0-0--3-3-3--3-]
[-0-0-0-0-0--1-1-1-1--0-0--3-3-3-3-----------1-1-1--0-]


If your coming home, you better leave now, you better leave now

      C         F      C    G   Am   F   C
[-0-0-0-0-0--1-1-1-1--0-0--3-3--0---1-1--0-]
[-1-1-1-1-1--1-1-1-1--1-1--3-3--1---1-1--1-]
[-0-0-0-0-0--2-2-2-2--0-0--0-0--2---2-2--0-]
[-2-2-2-2-2--3-3-3-3--2-2--0-0--2---3-3--2-]
[-3-3-3-3-3--3-3-3-3--3-3--2-2--0---3-3--3-]
[-0-0-0-0-0--1-1-1-1--0-0--3-3------1-1--0-]

Outro
    C           F          C          F            C          F
[------------------------------------------------------------------]
[----------------1--------------------1------------------------1---]
[-----0--------2------------0-------2---------0------0-------2-----]
[---2--------3------------2-------3-------0h2------2-------3-------]
[-3-----0---------3-----3-----0---------3--------3-----0---------3-]
[------------------------------------------------------------------]

    C
[----------0h1-0-8----------0-]
[------------------8--------1-]
[-----0--------------9h10h9-0-]
[---2-----------------------2-]
[-3-----0-------------------3-]
[---------------------------0-]

So that's it folks, it's a damn fine song from a damn fine band
if you have any questions, queries, comments, my emails at the top
Related for Travellin tab
Advertisement will be closed in 10 seconds