Song name
# A B C D E F G H I J K L M N O P Q R S T U V W X Y Z

Matt Mays - Move Your Mind tab

Help us improve GuitareTab! Take a short survey!
This song is from the CD Matt Mays and El Torpedo
tabbed by Steve Degen

Chords used

F      A#     G
-1-    -6-   -3-|
-1-    -6-   -3-|
-2-    -7-   -4-|
-3-    -8-   -5-|
-3-    -8-   -5-|
-1-    -6-   -3-|

The strumming for the song is very easy to pick up

Intro

F

F                  A#
you gotta move your mind

F                  A#
you gotta move your mind

                 G
If you wanna feel welcome

                 A#               F
If you wanna feel welcome around here

F                   A#
you gotta save your soul

F                   A#
you gotta save your soul

                  G
If you wanna feel welcome

                  A#              F
If you wanna feel welcome around here


Solo
----------------------------------------------|
----------------------------------------------|
-12b-10-12b-hold-10-10-10s12-------10---------|
-----------------------------10s12----10s12---|
----------------------------------------------|
----------------------------------------------|

----------------------------------------------|
----------------------------------------------|
-12b-10-12b-hold-10-10-10s12------------------|
-----------------------------10s12------------|
----------------------------------------------|
----------------------------------------------|

----------------------------------------------|
----------------------------------------------|
-12b-10-12---12b-10---------------------------|
--------------------12---8-8-8s10-------------|
----------------------------------10s12-------|
----------------------------------------------|

F                    A#
you gotta move your mind

F                    A#
you gotta move your mind

                     G
If you wanna feel welcome

                     A#            F
If you wanna feel welcome around here
Related for Move Your Mind tab