Guitaretab - guitar tabs
Song name
# A B C D E F G H I J K L M N O P Q R S T U V W X Y Z

Matt Mays - Mornin Sun tab

Last track from When the Angels Make Contact and its a beauty
tabbed by Steve Degen
IMPORTANT-the tuning for this song is a whole step down

e-tune to d
b-tune to a
g-tune to f  if you dont have a capable tuner..put a capo on
d-tune to c  your second fret and tune the guitar to standard
a tune to g  take the capo off and now your guitar will be
E-tune to d  tuned down a step

Chords used

C    F   Am   G  Dm
-0- -1- -0- -3- -1-|
-1- -1- -1- -3- -3-|
-0- -2- -2- -0- -2-|
-2- -3- -2- -0- -0-|
-3- -3- -0- -2- ---|
-0- -1- --- -3- ---|

There are little fills he puts in the whole song and I
will show the tab for those parts..otherwise the chords
are fine

Intro

C
-0---0-0-0-0-0---0---0-0-0-0-0---0---0-0-0-0-0---0---0-0-0-0-0-|
-1---1-1-1-1-1---1---1-1-1-1-1---1---1-1-1-1-1---1---1-1-1-1-1-|
-0---0-0-0-0-0---0---0-0-0-0-0---0---0-0-0-0-0---0---0-0-0-0-0-|
-0h2-2-2-2-2-2---0h2-2-2-2-2-2---0h2-2-2-2-2-2---0h2-2-2-2-2-2-|
-3---3-3-3-3-3---3---3-3-3-3-3---3---3-3-3-3-3---3---3-3-3-3-3-|
-0---0-0-0-0-0---0---0-0-0-0-0---0---0-0-0-0-0---0---0-0-0-0-0-|

F                    C
Everyone's having a good time

   F                C
Hotel room late at night

   F          Dm     G
And im here feeling bad

   F               C
Im going down to ocean side

   F               C
To get my mind some air

     F                   Dm               G
On a night like this I'd really like you there

Am  C     F
Late at night

Am  C     F
Late at night

Am          C        F            G
Where've ya been so long morning sun

     F                   C
These wheels wont stop turning

   F                  C
Inside this head of mine

   F                      Dm                G
The right way to feel is sometimes hard to find

Am  C     F
Late at night

Am  C     F
Late at night

Am          C        F            G
Where've ya been so long morning sun

Dm                G
Live life like a rolling stone

Am             C             F
Waiting for the yearly sign today
[ Tab from: http://www.guitaretab.com/m/matt-mays/84438.html ]
F               G                 C         F
Watching for a sign that tells me where to go

F       G      C
Then im on my way


Solo
----------------------------------------------------------|
-8-8s10-10-10s8-8s5-8h5----8s10-10s8-8s5-5h8-5-5h8-5------|
----------------------------------------------------------|
----------------------------------------------------------|
----------------------------------------------------------|
----------------------------------------------------------|

----------------------------------------------------------|
-8s10-8s5-------------------------------------------------|
----------5-5h7-9-7-5-------------------------------------|
------------5------------------0--------------------------|
--------------------------0-2----3-5-2--------------------|
----------------------3-3---------------------------------|

Dm                 G
Live life like a rolling stone

Am                 C           F
Searching for the yearly sign today

F               G                 C         F
Watching for a sign that tells me where to go

F        G      C       G
Then Im on my way.....hey


Late at night
Am     C       F    G
-0-0-0-0-0-0---1--------|
-1-1-1-1-1-1----1-1-----|
-2-2-2-0-0-0--2---------|
-2-2-2-2-2-2-3---3------|
-0-0-0-3-3-3--------5-0-|
-------0-0-0--------3-0-|

Am   C      F        G
Late at night

Am          C         F      G-just hit top 2 strings once
Where've ya been so long      all the way through to the end to
                             give that heavy bass sound
Am      C       F       G
Morning sun

Am   C      F      G
Late at night

Am   C      F      G
Late at night

Am          C        F        G
Where've ya been so long

Am      C       F        G
Morning sun

Am      C       F        G
Morning sun

Am      C       F        G
Morning sun

Am      C       F        G
Morning sun

Am      C       F        G
Morning sun

there are a few more fills he adds towards the end using the
F instead of hitting the G. they're just a few hammer-ons
and pull-offs and should be fairly easy to get. any questions..fire me off an email steve_degen@hotmail.com
Related for Mornin Sun tab
Advertisement will be closed in 10 seconds