Guitaretab - guitar tabs
Song name
# A B C D E F G H I J K L M N O P Q R S T U V W X Y Z

Matt Miller - Anytime At All chords

Highlighted       Show chord diagrams
Anytime At All
Matt Miller

Enjoy!
  
Am
Some days Iíve been wrong
                C7
And iíve been untrue
                                      F
But Iím giviní and liviní and loviní for you
D         G
Anytime at all
  Am
Sometimes the worlds grey
                   C7                  
The rain tumbles through
                                   F
But behind the storm the skyís always blue
 D        G
Anytime at all 
G7           Am                  F                   Dm             G
  |-------------------- |------------------- |--1-1-1---1-1-1---|  
  |---1-1-1----1-1-1--- |--1-1-1----1-1-1--- |--3-3-3---3-3-3---|  
  |---2-2-2----2-2-2--- |--2-2-2----2-2-2--- |--2-2-2---2-2-2---|
  |---2-2-2----2-2-2--- |--3-3-3----3-3-3--- |-0----------------|
  |-0------------------ |--3-3-3----3-3-3--- |---------3--------|
  |-----------3-------- |-1--------0-------- |------------------|

(Chorus)
Anytime at all 
Anytime just call on me
Anytime at all 
Anytime at all Iíll be there for you
  Am
The days seem so long 
                     C7
The nights drag on through 
                                   F
But I canít go wrong when Iím loviní you
  D       G
Anytime at all
[ Tab from: http://www.guitaretab.com/m/matt-miller/184803.html ]
(Chorus)
G7           Am                  F                   Dm             G
  |-------------------- |------------------- |--1-1-1---1-1-1---|  
  |---1-1-1----1-1-1--- |--1-1-1----1-1-1--- |--3-3-3---3-3-3---|  
  |---2-2-2----2-2-2--- |--2-2-2----2-2-2--- |--2-2-2---2-2-2---|
  |---2-2-2----2-2-2--- |--3-3-3----3-3-3--- |-0----------------|
  |-0------------------ |--3-3-3----3-3-3--- |---------3--------|
  |-----------3-------- |-1--------0-------- |------------------|

Anytime at all 
Anytime just call on me
Anytime at all 
Anytime at all Iíll be there for you

(Guitar Solo)Am C7 F D G
  
 Am 
Some days Iíve been wrong
                C7
Yes iíve been untrue
                                       F
But Iím giviní and liviní and loviní for you
 D         F
Anytime at all

 F                     D7
And when the rain is falliní
                    G
When youíre feeliní blue
G#m6
Iíll give it up and give it all to you

 F                    D7
And when the waterís risiní
                       G
And when youíre fallin through
  G#m6       
Iím liviní every minute and giviní whatís in it to you 

(Chorus)
G7           Am                  F                   Dm             G
  |-------------------- |------------------- |--1-1-1---1-1-1---|  
  |---1-1-1----1-1-1--- |--1-1-1----1-1-1--- |--3-3-3---3-3-3---|  
  |---2-2-2----2-2-2--- |--2-2-2----2-2-2--- |--2-2-2---2-2-2---|
  |---2-2-2----2-2-2--- |--3-3-3----3-3-3--- |-0----------------|
  |-0------------------ |--3-3-3----3-3-3--- |---------3--------|
  |-----------3-------- |-1--------0-------- |------------------|

Anytime at all 
Anytime just call on me
Anytime at all 
Anytime at all Iíll be there for you
Anytime at all 
Anytime just call on me
Anytime at all 
Anytime at all Iíll be there for you

http://www.myspace.com/mattmiller

Related for Anytime At All chords