Song name
# A B C D E F G H I J K L M N O P Q R S T U V W X Y Z

Matt Nathanson - Wedding Dress tab

I'm still working on the third verse, but this is what I've gotten so far.

Half step down

The intro is the same as the chorus


Verse:

---3------3---------------3---|
---3------3---------------3---|
---0------0---------------2---|
---2------0---------------0---|
---2------2---------------0---|
---0------3---------------3---|


"To be with you..."
---3----3------------3---------3-|
---3----3------------3---------3-|
---0----0------------0---------0-|
---2----0------------2---------0-|
---2----2------------2---------2-|
---0----3------------0---------3-|


Chorus:

---0------3--------3---------3-|
---3------3--------3---------3-|
---3------0--------2---------0-|
---0------0--------0---------2-|
---0------2--------0---------0-|
---7------3--------3---------3-|

Second Verse:

---3------3---------------3---3-|
---3------3---------------3---3-|
---0------0---------------2---0-|
---2------0---------------0---2-|
---2------2---------------0---0-|
---0------3---------------3---3-|

"To be with you..."
---3----3------------3---------3-|
---3----3------------3---------3-|
---0----0------------0---------0-|
---2----0------------2---------0-|
---2----2------------2---------2-|
---0----3------------0---------3-|


That's pretty much it. If anyone can figure out the third verse please let me know.
Tap to rate this tab
 
# A B C D E F G H I J K L M N O P Q R S T U V W X Y Z