Song name
# A B C D E F G H I J K L M N O P Q R S T U V W X Y Z

Matt Nathanson - Gone tab

Great song, have fun with it.

Tuning: half step down
        Eb Ab Db Gb Bb Eb


Intro
Eb|-------------------|-------------------|
Bb|-------------------|-------------------|
Gb|------------4------|------4-----3---4--|  x2
Db|------4---4---4----|----4-----4--------|
Ab|----2---2-------2--|--------2----------|
Eb|--0----------------|--4-----------2----|


Verse
      "Love, I'm aching..."
Eb|-------------------|-------------------|
Bb|-------------------|-------------------|
Gb|------------4------|------4-----3---4--|  x8
Db|------4---4---4----|----4-----4--------|
Ab|----2---2-------2--|--------2----------|
Eb|--0----------------|--4-----------2----|


Pre Chorus (strum)
    "I'm short of breath, I'm sure"
Eb|-----------|
Bb|-----------|
Gb|--4--------|  start softly then gradually
Db|--4--------|  get louder
Ab|--2--------|
Eb|--0--------|


Chorus (strum)
  "Gone, let it wash away |  The best I had
Eb|-----------------------|-----------------|
Bb|-----------------------|-----------------|
Gb|--4----4----4----4-----|--4----4----4----| 
Db|--4----4----4----4-----|--4----4----4----|
Ab|--x----2----2----2-----|--x----2----2----|
Eb|--4----0----2----0-----|--4----2----0----|

 Gone and when I dissapear | Don't expect me back..."
Eb|------------------------|---------------------|
Bb|------------------------|---------------------|
Gb|--4------4------4-------|--4-----4------4-----| 
Db|--4------4------4-------|--4-----4------4-----|
Ab|--x------2------2-------|--2-----x------2-----|
Eb|--4------2------0-------|--2-----4------2-----|


Bridge (strum)
   "At it's worst the heart is..."
Eb|-----------------|----------------------|
Bb|-----------------|----------------------|
Gb|--6----9----9----|--6----9----9----11---|
Db|--6----9----9----|--6----9----9----11---|
Ab|--4----6----7----|--4----6----7----9----|
Eb|-----------------|----------------------|



Order:

Intro
Verse
Chorus
Verse
Chorus
Bridge
Chorus



Tap to rate this tab
# A B C D E F G H I J K L M N O P Q R S T U V W X Y Z