Song name
# A B C D E F G H I J K L M N O P Q R S T U V W X Y Z

Matt Nathanson - Suspended Acoustic tab

Suspended (acoustic)
Artist: Matt Nathanson
Album: Live at The Point

Contributor: Daniel Schnall

Tuning: Eb G# C# F# Bb Eb (1/2 step down)


Intro
e|-----------------------------------------------0--------|
B|----10---10---10--9--9/10----10---10-----------3-2-0----|
G|----9----9----9---9--9-------9----9---6--7--6--2-----2--|
D|----7----7--0-0---0----------7----7---7--7--7--0--------|
A|--9-9--7-7-----------------9-9--7-7---0--0--0-----------|
E|--------------------------------------------------------|

e|--------------0--0---------------|
B|----10---10---3--2------10---10--|
G|----9----9----2--2------9----9---|
D|----7----7----0--0------7----7---|
A|--9-9--7-7------------9-9--7-7---|
E|---------------------------------|


Verse
e|---2---0---0---2---|
B|---2---3---0---2---|
G|---2---2---1---2---|
D|---4---0---2---4---|
A|---4-------2---4---|
E|--(2)------0--(2)--|


Prechorus
e|---0----0------0-----0------0---0----0---0--|
B|---10---9/10---10----9/10---10--9----10--9--|
G|---9----9------9-----9------9---9----9---9--|
D|---7----7------0-----0------7---7----7---7--|
A|---0----0------x-----x------7---7----7---7--|
E|---------------10----10-----0---0----0---0--|


Chorus
e|--------------0--0------------------------0--|
B|----10---10---3--2------10---10-----------3--|
G|----9----9----2--2------9----9---6--7--6--2--|
D|----7----7----0--0------7----7---7--7--7--0--|
A|--9-9--7-7------------9-9--7-7---0--0--0-----|
E|---------------------------------------------|


Bridge
     Bm   A    Bm   A   Bm   C#m   D    E
e|---2----0----2----0----2----4----2----0---|
B|---3----2----3----2----3----5----3----0---|
G|---4----2----4----2----4----6----2----1---|
D|---4----2----4----2----4----6----0----2---|
A|---2----0----2----0----2----4---------2---|
E|--------------------------------------0---|
Tap to rate this tab
# A B C D E F G H I J K L M N O P Q R S T U V W X Y Z