Song name
# A B C D E F G H I J K L M N O P Q R S T U V W X Y Z

Matt Nathanson - Bottom Of The Sea tab

This is a tab for the fantastic, simple and beautiful song Bottom of The Sea by Matt 
Nathanson of his album Modern Love.

I've only tabbed out the different parts of the song, but its deffinatly not hard to 
figure out how many times you play each part, just listen to the song. :) I figured it out 
by watching him play live in this video:

http://www.youtube.com/watch?v=MiWdhVx93F0

As always, please leave a comment or a correction (and rate. :)

Capo on the 2nd fret (but it might work without a capo too.)

(Numbers relative to the capo if you use one.)


Intro:
                    (5)
                     or, not sure about that note.
e----------------5--(7)-----------------3---------|e
B----7---5---7-----------7---5---7------3---3-----|B
G----7---7---7---7---7---7---7---7----------2-----|G
D-------------------------------------------2-----|D
A---------------------------------------2---------|A
E---------------------------------------3---------|E

Verse: "Come on down, to the bottom of the sea..."

e----2---2---3---------|e
B----3---3---3---3-----|B
G----2---2-------2-----|G
D----------------2-----|D
A------------2---------|A
E------------3---------|E

Pre-chorus: "I'm tired of getting even..."

e------------3---3---2---2-------------|e
B----3---3---3---3---3---3---2---2-----|B
G----4---4-----------2---2---2---2-----|G
D----4---4-------------------2---2-----|D
A----2---2---2---2---------------------|A
E------------3---3---------------------|E

Chorus: "I've tried my best..."

e----3---2-----------2---2-------------|e
B----3---3---3---2---3---3---2---2-----|B
G--------2---4---2-------2---2---2-----|G
D------------4---2-----------2---2-----|D
A----2-------2-------2-----------------|A
E----3---------------3-----------------|E

Post-chorus: "And now there's nothing..."

e--------------------3---------------|e
B----3---3---3---3---3---3---(let----|B
G---(4)-(4)--2---2-------2----it-----|G
D----4---4---2---2-------2-----------|ring)-D
A----2---2---2---2---2---------------|A
E------------4---4---3---------------|E

Bridge: "If the morning light ever..."

e----------------------|e
B----5------(2)--------|B
G----6---1---2---1-----|G  x3 into the next part
D----6---2---2---2-----|D
A----4---2-------2-----|A
E----------------------|E

"Dont be gone to long..."

e----------------------|e
B---(2)-(2)-(3)-(3)----|B
G----2---2---4---4-----|G  x2 then back to intro
D----2---2---4---4-----|D
A------------2---2-----|A
E----------------------|E

End on D
Tap to rate this tab
 
# A B C D E F G H I J K L M N O P Q R S T U V W X Y Z