Song name
# A B C D E F G H I J K L M N O P Q R S T U V W X Y Z

Matt Nathanson - Earthquake Summer tab

-------------------------------------------------------------------------------
                             Earthquake Weather - Matt Nathanson
-------------------------------------------------------------------------------
Tabbed by:
E-mail: abeaton1@gmail.com
Tuning: Standard

I tabbed this using the acoustic version Matt released today. This is my first tab. Any 
corrections are welcome.


INTRO (x 2)


e|--------------------------|
B|--------------------------|
G|-7--6--2--3--7--6--2--3---|
D|-0--0--0--0--0--0--0--0---|
A|-x--x--x--x--x--x--x--x---|
E|-7--7--3--3--7--7--3--3---|


VERSE 1 PART 1 (x 2)


e|-----------------------------------|
B|-----------------------------------|
G|-7--6--2--3--7--6--2--3--7--6--2--3|
D|-0--0--0--0--0--0--0--0--0--0--0--0|
A|-x--x--x--x--x--x--x--x--x--x--x--x|
E|-7--7--3--3--7--7--3--3--7--7--3--3|


VERSE 1 PART 2

      A
It all works out

Bm           G
July 4th parade

           A
Wrapped in beach towels

        Bm              G
Under a fireworks display



CHORUS

D
I close my eyes and

G
Dream about you, dream about you

D
Sun so bright, but I'm

G
Just a shadow that's fading out, and it

A               Bm
Feels like summer

         G
But it's earthquake

     G
It's earthquake weather

A                     Bm
It feels like summer

         G
But it's earthquake

     G
It's earthquake weather



INTRO (x 2)
e|--------------------------|
B|--------------------------|
G|-7--6--2--3--7--6--2--3---|
D|-0--0--0--0--0--0--0--0---|
A|-x--x--x--x--x--x--x--x---|
E|-7--7--3--3--7--7--3--3---|




VERSE 2 PART 1
e|-----------------------------------|
B|-----------------------------------|
G|-7--6--2--3--7--6--2--3--7--6--2--3|
D|-0--0--0--0--0--0--0--0--0--0--0--0|
A|-x--x--x--x--x--x--x--x--x--x--x--x|
E|-7--7--3--3--7--7--3--3--7--7--3--3|



VERSE 2 PART 2

         A
It comes natural

   Bm          G
To be so cruel

         A
To be an asshole

        Bm                G
To someone as good as you



CHORUS

D
I close my eyes and

G
Dream about you, dream about you

D
Sun so bright but you're

G
Just a shadow fading out, and

A                     Bm
It feels like summer

         G
But it's earthquake

     F#/D
It's earthquake weather

A                     Bm
It feels like summer

         G
But it's earthquake

     G
It's earthquake weather



BRIDGE

e|--------------------------|
B|--------------------------|
G|-7--6--2--3--7--6--2--3---|
D|-0--0--0--0--0--0--0--0---|  X 2
A|-x--x--x--x--x--x--x--x---|
E|-7--7--3--3--7--7--3--3---|


e|------------------------|
B|------------------------|
G|-9h10---9---5---6-------|
D|-0------0---0---0-------|  X 2
A|-x------x---x---x-------|
E|-10----10--10---6-------|


CHORUS

D
I close my eyes and

G
Dream about you

D
Sun so bright you're just a

G
Just a shadow fading out, and it

A          Bm
Feels like summer

         G
But it's earthquake

     F#/D
It's earthquake weather

A                 Bm
Feels like summer

         G
But it's earthquake

     G
It's earthquake weather



OUTRO

e|--------------------------|
B|--------------------------|
G|-7--6--2--3--7--6--2--3---|
D|-0--0--0--0--0--0--0--0---|
A|-x--x--x--x--x--x--x--x---|
E|-7--7--3--3--7--7--3--3---|




************************************

| /   slide up
| \   slide down
| H   hammer-on
| p   pull-off
| ~   vibrato
| +   harmonic
| x   Mute note
| B   Bend
| pb  Pre-bend
| br  Bend release
| pbr Pre-bend release
| brb Bend release bend

************************************
Tap to rate this tab
# A B C D E F G H I J K L M N O P Q R S T U V W X Y Z