Song name
# A B C D E F G H I J K L M N O P Q R S T U V W X Y Z

Matt Nathanson - Nick Martin tab

yeah i kinda messed up the 1st time...here's the real version...

Intro:
e-----3-----3---3---3---3---3---3----3----------------|
b-----3-----3---3---3---3---3---3----3----------------|
g-----------------------------------------------------|
d-----------------------------------------------------|
a-----------------------------------------------------|
E--3-----3----3---3---3---3---3---3----3--------------|


verse:
e------3----3---3----3----3-----3-----3-----3----------------------|
b------3----3---3----3----3-----3-----3-----3----------------------|
g------------------------------------------------------------------|
d----------------------------------0------0------------------------|
a------------------2----3----3-------------------------------------|
E--3-----3---3-----------------------------------------------------|

Chorus:"Angel, you sing..."

e----3-------------3----------3--------3---------------------------------|
b----3-------------3----------3--------3---------------------------------|
g------------------------------------------------------------------------|
d------x4-------0----x4---------x4------------x4-------------------------|
a------------------------------------3-----------------------------------|
E--3------------------------0--------------------------------------------|

After chorus:

e--------------------------------|
b--------3-----------------------|
g------0-------------------------|
d----4---------------------------|
a--5-----------------------------|
E--------------------------------|

Ending:

e--------------3------------|
b--------3-----3------------|(let G chord ring...)
g------0-------0------------|
d----4---------0------------|
a--5-----------2------------|
E--------------3------------|


thats all there is too it...thanks for checkin out this tab!
Tap to rate this tab
 
# A B C D E F G H I J K L M N O P Q R S T U V W X Y Z