Song name
# A B C D E F G H I J K L M N O P Q R S T U V W X Y Z

Matt Nathanson - Lost Myself In Search Of You tab

Help us improve GuitareTab! Take a short survey!
----------------------------------------------------------------------------
	    LOST MYSELF IN SEARCH OF YOU - Matt Nathanson
----------------------------------------------------------------------------

Tabbed by: Jwknov29
Email: Jwknov29@gmail.com

Tuning: Standard


Intro/Verse:
----3----3----3--0h2-----------------------------------------|
----3----3----3--3-3-----------------------------------------|
----0----0----0--2-2-----------------------------------------|
----0----0----2--0-0-----------------------------------------|
----2--0h2--2/3----------------------------------------------|
--3-3--------------------------------------------------------|

Chorus:

-3--2---3---2--3--2---3--3--3--3--3------3----3----3--2------------------|
-3--3---3---3--3--3---3--3--3--3--3------3----3----3--3------------------|
-0--2---0---2--0--2---0--0--0--0--0------0----0----0--2------------------|
-2--0---2---0--2--0---2--0--2--0--2------0----0----2--0------------------|
-3------3------3------3--2--3--2--3------2--0h2--2/3---------------------|
-------------------------3-----3-------3-3-------------------------------|


| /  slide up
| \  slide down
| h  hammer-on
| p  pull-off
| ~  vibrato
| +  harmonic
| x  Mute note
===============================================================================
Related for Lost Myself In Search Of You tab