Guitaretab - guitar tabs
Song name
# A B C D E F G H I J K L M N O P Q R S T U V W X Y Z

Matt Nathanson - Church Clothes Acoustic tab

----------------------------------------------------------------------------
			     Church Clothes - Matt Nathanson
----------------------------------------------------------------------------
Tabbed by: Nathan Alexander
Email: phree89@yahoo.com
| /  slide up
| \  slide down
| h  hammer-on
| p  pull-off
| ~  vibrato
| +  harmonic
| x  Mute note

Tuning: Standard
[ Tab from: http://www.guitaretab.com/m/matt-nathanson/73545.html ]
Intro/Verse
    (Em)  (D)  (Cbm)  (C)
E|--------------------------|
B|-8-7-5-------3-3-3--5-5---|
G|-0-0-0--7-7--0-0-0--0-0---|
D|-x-x-x--7-7--x-x-x--x-x---|
A|-7-7-7--5-5--2-2-2--3-3---|
E|-0-0-0--------------------|

Chorus
   (C)    (D)    (Em)
E|--------------------------|
B|-1-1-1--0-0--0-0-0-0-0----|
G|-0-0-0--0-0--0-0-0-0-0----|
D|-2-2-2--4-4--2-2-2-2-2----|
A|-3-3-3--5-5--2-2-2-2-2----|
E|-------------0-0-0-0-0----|

Break
E|-3-3-2-2--2-2-3-2--3-3-3-3-|
B|-3-3-3-3--3-3-3-3--3-3-3-3-|
G|-0-0-0-0--4-4-4-4--0-0-0-0-|
D|-0-0-0-0--4-4-4-4--2-2-2-2-|
A|-2-2-2-2--2-2-2-2--3-3-3-3-|
E|-3-3-3-3-------------------|
Related for Church Clothes Acoustic tab
×
Church Clothes Acoustic