Song name
# A B C D E F G H I J K L M N O P Q R S T U V W X Y Z

Matt Oneill - Asteroids tab

artist: the pistons 
song title: asteroids

intro/verses
e]-----------12-------------------12-------------------12--
b]-----12----------12-------12----------12-------12--------
g]--12----------12-------12----12----12-------12----12-----
D]--------12----------12-------------------12--------------
A]---------------------------------------------------------
E]---------------------------------------------------------x?

chorus
e]--12-12--11-11--11-12-12--12-12-12--11-11-11-11--
b]--12-12--11-11--11-12-12--12-12-12--11-11-11-11--
g]--12-12--11-11--11-12-12--12-12-12--11-11-11-11--
D]--12-12--11-11--11-12-12--12-12-12--11-11-11-11--
A]-------------------------------------------------
E]-------------------------------------------------
Tap to rate this tab
 
# A B C D E F G H I J K L M N O P Q R S T U V W X Y Z