Song name
# A B C D E F G H I J K L M N O P Q R S T U V W X Y Z

Matt Oneill - Magic Wonder Ball tab

verse
-----3333--3333--x3333x--3--333--33--|
-----3333--3333--x3333x--3--333--33--|
-----2222--0000--x2222x--0--000--00--|
-----0000--0000--x0000x--0--000--00--|
-----0000--3333--x3333x--3--333--22--|
-------------------------------------|
chorus
-----3333--3333--3-3--3333--3333--3-3--|
-----3333--3333--3-3--3333--3333--3-3--|
-----0000--0000--0-0--0000--0000--0-0--|
-----0000--0000--0-0--0000--0000--0-0--|
-----3333--2222--0-0--3333--2222--0-0--|
-----------------3p2--------------2h3--|
bridge
---------------------------------------|
---------------------------------------|
-----0000--0000--0-0--0000--0000--0-0--|
-----0000--0000--0-0--0000--0000--0-0--|
-----3333--2222--0-0--3333--2222--0-0--|
-----0000--0000--3p2--0000--0000--2h3--|
Tap to rate this tab
# A B C D E F G H I J K L M N O P Q R S T U V W X Y Z