Song name
# A B C D E F G H I J K L M N O P Q R S T U V W X Y Z

Matt Palmer - Love Song tab

hey guys,
I really love this song and there was no tabs for it.
So here you are. I'm not sure that it 100% correct 
but it sounds alright to me. If there are any mistakes
 can you please notify. Thanks and good luck :)

CAPO: 4th FRET!

  C  G  Am F
e|0--3--0--1|
B|1--3--1--1|
G|0--0--2--2|
D|2--0--2--3|
A|3--2--0--3|
E|0--3--0--1|


intro/verse:
  C                                               G
e|----------------------------------------------------------------------|
B|--------1------------------------1------------------------3-----------|
G|-------------0------------------------0------------------------0------|
D|----2-------------2---------2--------------2---------0--------------0-|
A|3----------------------3------------------------2---------------------|
E|----------------------------------------------------------------------|
                         Am
e|----------------------------------------------------------------------|
B|--------3------------------------1------------------------1-----------|
G|-------------0------------------------2------------------------2------|
D|----0-------------0---------2--------------2---------2--------------2-|
A|2----------------------0------------------------0---------------------|
E|----------------------------------------------------------------------|
  F
e|-------------------------------------------------|
B|--------1------------------------1---------------|
G|-------------2------------------------2----------|
D|----3-------------3---------3--------------3-----|
A|3----------------------3------------------------3|
E|-------------------------------------------------|


Verse 1:
C                                G
I know the love ain't easy, it's impossible for me
         Am                        F
And the long that I'm without it, the harder it is to believe.
C                                            G
They say, don't take it personally, but it's personal to me.
      Am                                   F
'Cause what I hear is you don't love me or the person I could be.


Chorus:
C                                 G
So here I sit all alone, playing chords I won't remember
        Am                             F
When I wake up in the morning, when I try to make it better
      C                                          G
But I'm too blind, it's my fault, guess I'm doing something wrong, 'cause 
    Am
I'm alone.
        F
Singing this same sad love song on my own.

On my own.


Verse2
       C                                  G
Guess I seem better in my own head that I do in flash and blood
         Am                                F
I'm not want to feeling sorry, wished that I could turn and run.
      C                              G
When I was young it didn't matter, I miss who I used to be.
        Am                               F
But now my confidence is shattered, and there's nothing left to miss.


Chorus:
           C                     G
So here I sit all alone, playing chords I won't remember
           Am                         F
When I wake up in the morning, when I try to make it better
         C                                 G
But I'm too blind, it's my fault, guess I'm doing something wrong, 'cause 
 Am
I'm alone.
            F
Singing this same sad love song on my own.

On my own.


Verse 3:
C                                   G
You don't wanna be with someone who doesn't want to be with you
Am                                   F
You don't wanna end the old flames, 'cause that's the easy thing to do.
C                                 G
They say wait a little longer, I'm sure you'll find the one.
Am                                  F
When everyday it's getting harder it's easier said than done.


Chorus
         C                     G
So here I sit all alone, playing chords I won't remember
     Am                            F
When I wake up in the morning, when I try to make it better
      C                               G
But I'm too blind, it's my fault, guess I'm doing something wrong, 'cause 
Am
I'm alone.
              F
Singing this same sad love song on my own.

On my own.


Outro:
 C              G
I'm on my own, on my own
         Am                           F
Singing this same sad love song on my own. 
Tap to rate this tab
 
# A B C D E F G H I J K L M N O P Q R S T U V W X Y Z