Song name
# A B C D E F G H I J K L M N O P Q R S T U V W X Y Z

Matt Papa - Jesus Is Lord tab

Jesus Is Lord - Matt Papa

key - C# (b/c i'm positive, not negative like you flat people)
chord chart here: http://mattpapa.com/wp-content/uploads/2011/08/Jesus-Is-Lord-Chords.pdf


For the intro, use delay & chorus (idk the setting in mms, I use a dotted 8th delay)

e|--------------------8-----------------|
B|------4-4-----4--/9-------------------|
G|----------5-5------8------------------|
D|----6---------------------------------|
A|--------------------------------------|
E|--------------------------------------|

Then chords come in:
      C#       G#         D#     C#       Fm       D#
e|---------------------------------------------------------|
B|---------------------------------------------------------|
G|----6-6-66---13--13-13--8--8---6-6-66---10-10-10-8--8----|
D|----6-6-66---13--13-13--8--8---6-6-66---10-10-10-8--8----|
A|----4-4-44---11--11-11--6--6---4-4-44---8--8--8--6--6----|
E|---------------------------------------------------------|

Verse: (palm mute intro chords)
C#       G#       D#        
Almighty King eternal One
C#              Fm     D#
He made Himself nothing
C#          G#      D#            C#
A suffering servant poor and meek
(same for verse 2, 3 & 4, then C# to chorus)

Chorus: (GET LOUD!)
         C#    G# D#    C#       Fm D#      A#m      G# D# C#
Jesus is LO-O-ORD Jesus is LORD    Jesus is LO-O-O-O-ORD  He is LORD
e|-------------------------------------------------------------------|
B|-------------------------------------------------------------------|
G|-------6-----13-8-----6--------10-8-------------------8--6---------|
D|-------6-----13-8-----6--------10-8-------8--------6--8--6---------|
A|-------4-----11-6-----4--------8--6-------8--------6--6--4---------|
E|------------------------------------------6--------4---------------|

There is a delay riff in the background of the chorus, something like this:
         C#      G#  D#    C#       
Jesus is LO--O--ORD  Jesus is LORD   
e|------------------------------------------------|
B|-------6-6-6-6-4-4-4-4--------------------------|
G|--------6-6-6-6-5-5-3-3--(repeat)---------------|
D|------------------------------------------------|
A|------------------------------------------------|
E|------------------------------------------------|

Intro (fill)
Verse
Chorus

Bridge:
  D#           A#m          C#
  All creation cry it out hosts of angels sing it loud (repeat for 2nd half)
e|-------------------------------------------------------|
B|-------------------------------------------------------|
G|-8------------------------6----------------------------|
D|-8-----------8------------6----------------------------|
A|-6-----------8------------4----------------------------|
E|-------------6-----------------------------------------|

Chorus
Outro (same as intro)
Tap to rate this tab
# A B C D E F G H I J K L M N O P Q R S T U V W X Y Z