Song name
# A B C D E F G H I J K L M N O P Q R S T U V W X Y Z

Matt Pond Pa - Halloween tab

Help us improve GuitareTab! Take a short survey!
Halloween - Matt Pond
Several Arrows Later

2 guitars
Standard tuning
Guitar 1-Brian Pearl
Guitar 2-Matt Pond

LIVE VERSION.


Intro(x2) - guitar 1 only.
e|--------0-----------------|
B|-------------0------------|
G|-----1----1----1-1-1------|
D|--1-2-2----2----2-2-------|
A|-2------------------------|
E|--------------------------|


Verse 1(x2) - Guitar 1 only.
e|------------------------|
B|-----0-------0----------|
G|---1---1-1-1---1-1------|
D|--2-2---2-2-2---2-------|
A|------------------------|
E|------------------------|

e|------------------------|
B|-----2-0-----2-0--------|
G|---1-----1-1-----1------|
D|--1-1---1-1-1---1-------|
A|------------------------|
E|------------------------|

e|------------------------|
B|-----0-------0----------|
G|---2---2-2-2---2-2------|
D|------------------------|
A|--0-0---0-0-0---0-------|
E|------------------------|

e|------------------------|
B|-----2-0-----2-0--------|
G|------------------------|
D|---1-----1-1------1-----|
A|--2-2---2-2-2----2------|
E|------------------------|


Intro to Verse 2(x1) - Guitar 1:

e|----7----------------9-7---------|
B|--9--9-9-9-9--9-9--9-----9-9-9-9-|
G|-9-9--9-9-9--8-8--9-9---9-9-8-8--|
D|---------------------------------|
A|---------------------------------|
E|---------------------------------|

(he adds the random slide from 8 to 9)


Verse 2 Part 1(x1) - Guitar 1:
e|--------------------|
B|--9-9-9-9-9-9-9-9---|
G|-9-9-9-9-9-9-9-9----|
D|--------------------|
A|--------------------|
E|--------------------|

e|--------------------|
B|--9-9-9-9-9-9-9-9---|
G|-8-8-8-8-8-8-8-8----|
D|--------------------|
A|--------------------|
E|--------------------|

e|--------------------|
B|--5-5-5-5-5-5-5-5---|
G|-6-6-6-6-6-6-6-6----|
D|--------------------|
A|--------------------|
E|--------------------|

e|--------------------|
B|--7-7-7-7-7-7-7-7---|
G|-8-8-8-8-8-8-8-8----|
D|--------------------|
A|--------------------|
E|--------------------|

Verse 2 Part 2(x1) Guitar 1:

e|----7------7--------|
B|--9--9-9-9--9-9-----|
G|-9-9--9-9-9--9------|
D|--------------------|
A|--------------------|
E|--------------------|

e|----9-7-----7-------|
B|--9-----9-9--9-9----|
G|-8-8---8-8-8--8-----|
D|--------------------|
A|--------------------|
E|--------------------|

e|----7-4-----4-------|
B|--5-----5-5--5-5----|
G|-6-6---6-6-6--6-----|
D|--------------------|
A|--------------------|
E|--------------------|

e|----9-7-----7-------|
B|--7-----7-7--7-7----|
G|-8-8---8-8-8--8-----|
D|--------------------|
A|--------------------|
E|--------------------|

Chorus(x8) Guitar 1:

e|---7----9-7---|
B|--9-9--9---9--|
G|-9----8-------|
D|--------------|
A|--------------|
E|--------------|

Post Chorus 1(x1) Guitar 1:

e|------------------9~---10~--12~--14~--|
B|-5~--7~--9~--12~--10~--12~--14~--16~--|
G|-6~--8~--9~--13~--11~--13~--14~--16~--|
D|--------------------------------------|
A|--------------------------------------|
E|--------------------------------------|

Play Intro to Verse 2(x2)
Play Verse 2 Part 1(x1)
Play Chorus(x8)

Post Chorus 2(x1) Guitar 1:

e|------------------9~---10~--12~--14~---14---|
B|-5~--7~--9~--12~--10~--12~--14~--16~----16--|
G|-6~--8~--9~--13~--11~--13~--14~--16~-16--16-|
D|--------------------------------------------|
A|--------------------------------------------|
E|--------------------------------------------|

Outro 1(x4) Guitar 1:       

e|-----12--------------------|--12~--|
B|---12--12-12-12-12-12-12---|--12~--|
G|-13-13--13-13-13-14-14-----|--13~--|end on
D|---------------------------|-------|<<
A|---------------------------|-------|
E|---------------------------|-------|

Verse 3(x1) Guitar 1:

e|-4~--5~--4~--7~--7~---9~--10~----|
B|-5~--5~--5~--9~--9~--10~--12~----|
G|-6~--6~--6~--9~--8~--11~--13~----|
D|---------------------------------|
A|---------------------------------|
E|---------------------------------|

Play Chorus(x8)
Play Post Chorus 2(x1)

Outro 2(x2)              | End With  |
e|-----12--------12------|--7/12-12~--|
B|---12--12----12--------|--7/12-12~--|
G|-13-13-----13-13-------|--8/13-13~--|
D|-----------------14----|------------|
A|-----------------------|------------|
E|-----------------------|------------|




Guitar 2 starts at "Intro to Verse 2"
but it will be called A 

he also only uses the lowest three strings


Verse A(x2) repeating quickly

D|------------------------------------|
A|------11--11--11--11--11--11--11----|
E|--7/12--12--12--12--12--12--12--7---|

Verse B(x2)

D|------------------------------------|
A|----11--11--11--11--11--11--11--11--|
E|---12--12--12--12--12--12--12--12---|

D|------------------------------------|
A|----11--11--11--11--11--11--11--11--|
E|---11--11--11--11--11--11--11--11---|

D|----7--7--7--7--7--7--7--7--|
A|----------------------------|
E|---5--5--5--5--5--5--5--5---|

D|----------------------------|
A|----6--6--6--6--6--6--6--6--|
E|---7--7--7--7--7--7--7--7---|

Chorus A(x4)

D|--------------------|
A|----11--11--11--11--|
E|---12--12--12--12---|

D|--------------------|
A|----11--11--11--11--|
E|---11--11--11--11---|

D|----7--7--7--7--|
A|----------------|
E|---5--5--5--5---|

D|----------------|
A|----6--6--6--6--|
E|---7--7--7--7---|

Post Chorus A(x4)
                               | last time...   |
D|----7--7--7--7---------------|----------------|
A|-----------------6--6--6--6--|----6--6--6--6--|
E|---5--5--5--5---7--7--7--7---|---7--7--7--7---|

Play Verse A(x4)
Play Verse B(x1)
Play Chorus A(x4)
Play Post Chorus A(x4)
Play Verse A(x4)
Play Verse B(x2)
Play Chorus A(x4)
Play Post Chorus A(x4)
Play Verse A(x4)

End with

D|---------|
A|----11~--|
E|--7/12~--|
Related for Halloween tab