Song name
# A B C D E F G H I J K L M N O P Q R S T U V W X Y Z

Matt Pond Pa - Crickets tab

Title:  'Crickets'
Artist: matt pond PA (mattpondpa.com)
Album:  The Green Fury
Tabbed by Jorge Díaz (j_diaz_s@yahoo.com)


 Note: Tune the 6th string from E to G.
       Tune the 5th String from A to G.


 Intro: (0:58)  [ This is played the whole song ]

E ---------5----|
B -----------5--|
G -0--0--0------|
D -0--0--0------| (x6)
G -0--0---------|
G -0--0---------|


 Verse 1: (1:15)

E -----------5--------------------5----|
B -------------5--------------------5--|
G ---0--0--0--------------0--0--0------|
D ---0--0--0--------------0--0--0------|
G ---0--0-----------------0--0---------|
G ---0--0-----------------0--0---------|
  the warmth has you taking off your coat

E -----------5--------------------5----|
B -------------5--------------------5--|
G ---0--0--0--------------0--0--0------|
D ---0--0--0--------------0--0--0------|
G ---0--0-----------------0--0---------|
G ---0--0-----------------0--0---------|
  in the darkness behind the greens and gold

E -----------5--------------------5----|
B -------------5--------------------5--|
G ---0--0--0--------------0--0--0------|
D ---0--0--0--------------0--0--0------|
G ---0--0-----------------0--0---------|
G ---0--0-----------------0--0---------|
  there's always things you wish you hadn't done

E -----------5--------------------5----|
B -------------5--------------------5--|
G ---0--0--0--------------0--0--0------|
D ---0--0--0--------------0--0--0------|
G ---0--0-----------------0--0---------|
G ---0--0-----------------0--0---------|
  there's always things you wish you hadn't done


 Fill 1: (1:38)

E -5-7-5-3---2-3-2-0--|
B --------------------|
G --------------------|
D --------------------| (x2)
G --------------------|
G --------------------|


 Verse 2: (2:02) [ Sae as Verse 1 ]

the winter again will help you breathe
the comfort that comes with less to see
there's always things you wish you hadn't done
there's always things you wish you hadn't done


 [ Repeat Fill 1 ] (2:25)


 Fill 2: (2:48) [ Harmonica ]

E --------------|
B ---3---1---0--|
G --------------|
D --------------|
G --------------|
G --------------|


 [ Repeat Intro ]

 [ Last Time: ]

E ---------5-------|
B -----------5-----|
G -0--0--0---------|
D -0--0--0-----(0)-|
G -0--0---------0--|
G -0--0---------0--|
Tap to rate this tab
# A B C D E F G H I J K L M N O P Q R S T U V W X Y Z