Song name
# A B C D E F G H I J K L M N O P Q R S T U V W X Y Z

Matt Pond Pa - Promise The Party tab

Title:  'Promise the Party'
Artist: matt pond PA (mattpondpa.com)
Album:  The Nature Of Maps
Tabbed by Jorge Díaz (j_diaz_s@yahoo.com)


 Note: Tune the 6th string from E to G.
       Tune the 5th String from A to G.
       Tune the 1st string from E to D.
       Use Capo on 5th fret.


 Intro: 

 (0:04) (x2)

   D --0-0-0--0-0-0--0-0-0---0--0--0--0--0---0---0---0---0--|
   B --0-0-0--0-0-0--0-0-0---0--0--0--0--0---0---0---0---0--|
   G --2-2-2--4-4-4--2-2-2---7--4--2--4--2---0---4---0---4--|
1  D --0-0-0--0-0-0--0-0-0---0--0--0--0--0---0---0---0---0--|
   G --2-2-2--4-4-4--2-2-2---7--4--2--4--2---0---4---0---4--|
   G --2-2-2--4-4-4--2-2-2---7--4--2--4--2---0---4---0---4--|

   D -------------------------------------------------------|
   B ------------------------3------------------------------|
   G --2------4------2----------4--2--4--2---0---4---0---4--|
2  D -------------------------------------------------------|
   G -------------------------------------------------------|
   G -------------------------------------------------------|


 (0:30) (x2)

   D --0--0--0--0--0--0--0---0--0--0--0--0---0--0--0--0--|
   B --0--0--0--0--0--0--0---0--0--0--0--0---0--0--0--0--|
   G --0--0--0--0--0--0--0---0--0--0--0--0---0--0--0--0--|
1  D --0--0--0--0--0--0--0---0--0--0--0--0---0--0--0--0--|
   G --0--0--0--0--0--0--0---2--2--2--2--2---0--0--0--0--|
   G --0--0--0--0--0--0--0---2--2--2--2--2---0--0--0--0--|

   D ---------0----2----0------------2r0-----------------|
   B ---0----------------------0----------0--------------|
   G ------0-----0----0----0------0----------0--(0)------|
2  D ----------------------------------------------------|
   G ----------------------------------------------------|
   G ----------------------------------------------------|



 Verse 1: (0:44)

   D ---0--0--0--0--0--0-------0--0--0--0--0--0----0--0--0--0--|
   B ---0--0--0--0--0--0-------0--0--0--0--0--0----0--0--0--0--|
   G ---0--0--0--0--0--0-------0--0--0--0--0--0----0--0--0--0--|
1  D ---0--0--0--0--0--0-------0--0--0--0--0--0----0--0--0--0--|
   G ---0--0--0--0--0--0-------2--2--2--2--2--2----0--0--0--0--|
   G ---0--0--0--0--0--0-------2--2--2--2--2--2----0--0--0--0--|

   D -----0-----0-------------0-----0-------------0-----0------|
   B ---0-----0-----0-------0-----0-----0-------0-----0-----0--|
   G -0-----0-----0-------0-----0-----0-------0-----0-----0----|
2  D ----------------------------------------------------------|
   G ----------------------------------------------------------|
   G ----------------------------------------------------------|
    We broke the windows so we could see everything

   D ---0--0--0--0--0--0-------0--0--0--0--0--0----0--0--0--0--|
   B ---0--0--0--0--0--0-------0--0--0--0--0--0----0--0--0--0--|
   G ---0--0--0--0--0--0-------0--0--0--0--0--0----0--0--0--0--|
1  D ---0--0--0--0--0--0-------0--0--0--0--0--0----0--0--0--0--|
   G ---0--0--0--0--0--0-------2--2--2--2--2--2----5--5--5--5--|
   G ---0--0--0--0--0--0-------2--2--2--2--2--2----5--5--5--5--|

   D -----0-----0-------------0-----0-------------0-----0------|
   B ---0-----0-----0-------0-----0-----0-------0-----0-----0--|
   G -0-----0-----0-------0-----0-----0-------0-----0-----0----|
2  D ----------------------------------------------------------|
   G ----------------------------------------------------------|
   G ----------------------------------------------------------|
    Beyond the pines and passes we'll see what we mean


 Bridge: (0:57)

   D ---0---0---0----0------0----0---0---0-0-0--|
   B ---0---0---0----0------0----0---0---0-0-0--|
   G ---0---0---0----0------0----0---0---0-0-0--|
1  D ---0---0---0----0------0----0---0---0-0-0--|
   G ---5---4---5--5s7------2--2s4---0---0-0-0--|
   G ---5---4---5--5s7------2--2s4---0---0-0-0--|

   D ----------------------------------|
   B ----------------------------------|
   G ---5---4--(0)----------2----4--0--|
2  D ----------------------------------|
   G ----------------------------------|
   G ----------------------------------|
    The party left me, I was getting in the way

   D ---0---0---0----0------0----0---0---0-0-0--|
   B ---0---0---0----0------0----0---0---0-0-0--|
   G ---0---0---0----0------0----0---0---0-0-0--|
1  D ---0---0---0----0------0----0---0---0-0-0--|
   G ---5---4---5--5s7------2--2s4---0---0-0-0--|
   G ---5---4---5--5s7------2--2s4---0---0-0-0--|

   D ----------------------------------|
   B ----------------------------------|
   G ---5---4--(0)----------2----4--0--|
2  D ----------------------------------|
   G ----------------------------------|
   G ----------------------------------|
    The party left me, but the landmarks aren't that bad


 Chorus: (1:17)

   D --0--0--0---0---0---0---0---0---0--|
   B --0--0--0---0---0---0---0---0---0--|
   G --0--0--0---0---0---0---0---0---0--|
1  D --0--0--0---0---0---0---0---0---0--|
   G --5--4--0---0---0---0---0---0---0--|
   G --5--4--0---0---0---0---0---0---0--|

   D -----------------------------------|
   B -----------------------------------|
   G --5--4--0--------------------------|
2  D -----------------------------------|
   G -----------------------------------|
   G -----------------------------------|
           You think of yourself an Atlast

   D --0--0--0---0---0---0---0---0---0--|
   B --0--0--0---0---0---0---0---0---0--|
   G --0--0--0---0---0---0---0---0---0--|
1  D --0--0--0---0---0---0---0---0---0--|
   G --5--4--0---0---0---0---0---0---0--|
   G --5--4--0---0---0---0---0---0---0--|

   D -----------------------------------|
   B -----------------------------------|
   G --5--4--0--------------------------|
2  D -----------------------------------|
   G -----------------------------------|
   G -----------------------------------|
           Coming off you're more as factless

   D --0--0--0---0---0---0---0---0---0--|
   B --0--0--0---0---0---0---0---0---0--|
   G --0--0--0---0---0---0---0---0---0--|
1  D --0--0--0---0---0---0---0---0---0--|
   G --5--4--0---0---0---0---0---0---0--|
   G --5--4--0---0---0---0---0---0---0--|

   D -----------------------------------|
   B -----------------------------------|
   G --5--4--0--------------------------|
2  D -----------------------------------|
   G -----------------------------------|
   G -----------------------------------|
           So simpler we'll see what's attractive

   D ---0---0---0---0---0---0---0---0---|
   B ---0---0---0---0---0---0---0---0---|
   G ---0---0---0---0---0---0---0---0---|
1  D ---0---0---0---0---0---0---0---0---|
   G ---4---4---4---4---4---4---4---4---|
   G ---4---4---4---4---4---4---4---4---|

   D -----------------------------------|
   B --0h1---0h1---0h1---0h1------------|
   G -----------------------------------|
2  D -----------------------------------|
   G -----------------------------------|
   G -----------------------------------|
     Mapping points till it seems lineless

   D ---0---0---0---0---0---0---0---0---0---0---0---0--|
   B ---0---0---0---0---0---0---0---0---0---0---0---0--|
   G ---0---0---0---0---0---0---0---0---0---0---0---0--|
1  D ---0---0---0---0---0---0---0---0---0---0---0---0--|
   G ---7---7---7---7---7---7---7---7---9---9---9---9--|
   G ---7---7---7---7---7---7---7---7---9---9---9---9--|

   D -----------------------------------|
   B -0-1-3-1---0-1-3-1--3s5-5-5-5-5----|
   G -----------------------------------|
2  D -----------------------------------|
   G -----------------------------------|
   G -----------------------------------|
    Pointing out a perfect likeness


 (1:32) (x2)

   D --0--0--0--0--0--0--0---0--0--0--0--0---0--0--0--0--|
   B --0--0--0--0--0--0--0---0--0--0--0--0---0--0--0--0--|
   G --0--0--0--0--0--0--0---0--0--0--0--0---0--0--0--0--|
1  D --0--0--0--0--0--0--0---0--0--0--0--0---0--0--0--0--|
   G --0--0--0--0--0--0--0---2--2--2--2--2---0--0--0--0--|
   G --0--0--0--0--0--0--0---2--2--2--2--2---0--0--0--0--|

   D ---------0----2----0------------2r0-----------------|
   B ---0----------------------0----------0--------------|
   G ------0-----0----0----0------0----------0--(0)------|
2  D ----------------------------------------------------|
   G ----------------------------------------------------|
   G ----------------------------------------------------|



 Verse 2: (1:45)

   D ---0--0--0--0--0--0-------0--0--0--0--0--0----0--0--0--0--|
   B ---0--0--0--0--0--0-------0--0--0--0--0--0----0--0--0--0--|
   G ---0--0--0--0--0--0-------0--0--0--0--0--0----0--0--0--0--|
1  D ---0--0--0--0--0--0-------0--0--0--0--0--0----0--0--0--0--|
   G ---0--0--0--0--0--0-------2--2--2--2--2--2----0--0--0--0--|
   G ---0--0--0--0--0--0-------2--2--2--2--2--2----0--0--0--0--|

   D -----0-----0-------------0-----0-------------0-----0------|
   B ---0-----0-----0-------0-----0-----0-------0-----0-----0--|
   G -0-----0-----0-------0-----0-----0-------0-----0-----0----|
2  D ----------------------------------------------------------|
   G ----------------------------------------------------------|
   G ----------------------------------------------------------|
    Recall the callous in its position on the line

   D ---0--0--0--0--0--0-------0--0--0--0--0--0----0--0--0--0--|
   B ---0--0--0--0--0--0-------0--0--0--0--0--0----0--0--0--0--|
   G ---0--0--0--0--0--0-------0--0--0--0--0--0----0--0--0--0--|
1  D ---0--0--0--0--0--0-------0--0--0--0--0--0----0--0--0--0--|
   G ---0--0--0--0--0--0-------2--2--2--2--2--2----5--5--5--5--|
   G ---0--0--0--0--0--0-------2--2--2--2--2--2----5--5--5--5--|

   D -----0-----0-------------0-----0-------------0-----0------|
   B ---0-----0-----0-------0-----0-----0-------0-----0-----0--|
   G -0-----0-----0-------0-----0-----0-------0-----0-----0----|
2  D ----------------------------------------------------------|
   G ----------------------------------------------------------|
   G ----------------------------------------------------------|
    The gaze that comes through it won't give you anything

 
 Bridge: (1:59)

   D ---0---0---0----0------0----0---0---0-0-0--|
   B ---0---0---0----0------0----0---0---0-0-0--|
   G ---0---0---0----0------0----0---0---0-0-0--|
1  D ---0---0---0----0------0----0---0---0-0-0--|
   G ---5---4---5--5s7------2--2s4---0---0-0-0--|
   G ---5---4---5--5s7------2--2s4---0---0-0-0--|

   D ----------------------------------|
   B ----------------------------------|
   G ---5---4--(0)----------2----4--0--|
2  D ----------------------------------|
   G ----------------------------------|
   G ----------------------------------|
    They had to leave me, and I'm proud to have a part

   D ---0---0---0----0------0----0---0---0-0-0--|
   B ---0---0---0----0------0----0---0---0-0-0--|
   G ---0---0---0----0------0----0---0---0-0-0--|
1  D ---0---0---0----0------0----0---0---0-0-0--|
   G ---5---4---5--5s7------2--2s4---0---0-0-0--|
   G ---5---4---5--5s7------2--2s4---0---0-0-0--|

   D ----------------------------------|
   B ----------------------------------|
   G ---5---4--(0)----------2----4--0--|
2  D ----------------------------------|
   G ----------------------------------|
   G ----------------------------------|
    They had to leave me, it's the nature of concern


 Chorus: (2:19)

   D --0--0--0---0---0---0---0---0---0--|
   B --0--0--0---0---0---0---0---0---0--|
   G --0--0--0---0---0---0---0---0---0--|
1  D --0--0--0---0---0---0---0---0---0--|
   G --5--4--0---0---0---0---0---0---0--|
   G --5--4--0---0---0---0---0---0---0--|

   D -----------------------------------|
   B -----------------------------------|
   G --5--4--0--------------------------|
2  D -----------------------------------|
   G -----------------------------------|
   G -----------------------------------|
           You think of yourself an Atlast

   D --0--0--0---0---0---0---0---0---0--|
   B --0--0--0---0---0---0---0---0---0--|
   G --0--0--0---0---0---0---0---0---0--|
1  D --0--0--0---0---0---0---0---0---0--|
   G --5--4--0---0---0---0---0---0---0--|
   G --5--4--0---0---0---0---0---0---0--|

   D -----------------------------------|
   B -----------------------------------|
   G --5--4--0--------------------------|
2  D -----------------------------------|
   G -----------------------------------|
   G -----------------------------------|
           Coming off you're more as factless

   D --0--0--0---0---0---0---0---0---0--|
   B --0--0--0---0---0---0---0---0---0--|
   G --0--0--0---0---0---0---0---0---0--|
1  D --0--0--0---0---0---0---0---0---0--|
   G --5--4--0---0---0---0---0---0---0--|
   G --5--4--0---0---0---0---0---0---0--|

   D -----------------------------------|
   B -----------------------------------|
   G --5--4--0--------------------------|
2  D -----------------------------------|
   G -----------------------------------|
   G -----------------------------------|
           So simpler we'll see what's attractive

   D ---0---0---0---0---0---0---0---0---|
   B ---0---0---0---0---0---0---0---0---|
   G ---0---0---0---0---0---0---0---0---|
1  D ---0---0---0---0---0---0---0---0---|
   G ---4---4---4---4---4---4---4---4---|
   G ---4---4---4---4---4---4---4---4---|

   D -----------------------------------|
   B --0h1---0h1---0h1---0h1------------|
   G -----------------------------------|
2  D -----------------------------------|
   G -----------------------------------|
   G -----------------------------------|
     Mapping points till it seems lineless

   D ---0---0---0---0---0---0---0---0---0---0---0---0--|
   B ---0---0---0---0---0---0---0---0---0---0---0---0--|
   G ---0---0---0---0---0---0---0---0---0---0---0---0--|
1  D ---0---0---0---0---0---0---0---0---0---0---0---0--|
   G ---7---7---7---7---7---7---7---7---9---9---9---9--|
   G ---7---7---7---7---7---7---7---7---9---9---9---9--|

   D -----------------------------------|
   B -0-1-3-1---0-1-3-1--3s5-5-5-5-5----|
   G -----------------------------------|
2  D -----------------------------------|
   G -----------------------------------|
   G -----------------------------------|
    Pointing out a perfect likeness


 Outro:

 (2:34) (x2)

D --0--0--0--0---0--0--0--0---0--0--0--0---0--0--0--0--|
B --0--0--0--0---0--0--0--0---0--0--0--0---0--0--0--0--|
G --0--0--0--0---0--0--0--0---0--0--0--0---0--0--0--0--|
D --0--0--0--0---0--0--0--0---0--0--0--0---0--0--0--0--|
G --4--4--4--4---7--7--7--7---2--2--2--2---0--0--0--0--|
G --4--4--4--4---7--7--7--7---2--2--2--2---0--0--0--0--|


 (2:47) (x2)

   D --0--0--0--0--0--0--0---0--0--0--0--0---0--0--0--0--|
   B --0--0--0--0--0--0--0---0--0--0--0--0---0--0--0--0--|
   G --0--0--0--0--0--0--0---0--0--0--0--0---0--0--0--0--|
1  D --0--0--0--0--0--0--0---0--0--0--0--0---0--0--0--0--|
   G --0--0--0--0--0--0--0---2--2--2--2--2---0--0--0--0--|
   G --0--0--0--0--0--0--0---2--2--2--2--2---0--0--0--0--|

   D ---------0----2----0------------2r0-----------------|
   B ---0----------------------0----------0--------------|
   G ------0-----0----0----0------0----------0--(0)------|
2  D ----------------------------------------------------|
   G ----------------------------------------------------|
   G ----------------------------------------------------|

 (3:00)

   D -0--0--0-----------0--0--0-------------0--0--0-------------0--0--0--|
   B -0--0--0-----------0--0--0-------------0--0--0-------------0--0--0--|
   G -0--0--0-----------0--0--0-------------0--0--0-------------0--0--0--|
1  D -0--0--0-----------0--0--0-------------0--0--0-------------0--0--0--|
   G -5--4--0-----------5--4--0-------------5--4--0-------------5--4--0--|
   G -5--4--0-----------5--4--0-------------5--4--0-------------5--4--0--|
-
   D --------------------------------------------------------------------|
   B -----0-0h3-0-0-0h3-1-0---0-0h3-0-0-0h3-1-0---0-0h3-0-0-0h3-1--0-----|
   G -----------------------0-------------------0---------------------0--|
2  D --------------------------------------------------------------------|
   G --------------------------------------------------------------------|
   G --------------------------------------------------------------------|
Tap to rate this tab
 
# A B C D E F G H I J K L M N O P Q R S T U V W X Y Z