Song name
# A B C D E F G H I J K L M N O P Q R S T U V W X Y Z

Matt Pond Pa - Measure 3 tab

Title:  'Measure 3'
Artist: matt pond PA (mattpondpa.com)
Album:  The Green Fury
Tabbed by Jorge Díaz (j_diaz_s@yahoo.com)


 Note: Tune the 6th string from E to G.
       Tune the 5th String from A to G.
       Tune the 1st string from E to D.
 

 Intro:


D -----7---7------0---0---------0-----0------0---0--|
B -----7---7------5---5---------0-----0------0---0--|
G -----7---7------7---7--------10----10------7---7--|
D -7-7-7-7-7--0-0-0-0-0---0--0--0--0--0--0-0-0-0-0--| (x4)
G -7-7-7-7-7--0-0-0-0-0--11-11-11-11-11--7-7-7-7-7--|
G -7-7-7-7-7--0-0-0-0-0--11-11-11-11-11--6-6-6-6-6--|

 (0:29)

   D --0-0-0-0---0-0-0-0----0--0--0--0---0-0-0-0--|
   B --0-0-0-0---0-0-0-0----0--0--0--0---0-0-0-0--|
   G --7-7-7-7---7-7-7-7---11-11-11-11---7-7-7-7--|
1  D --0-0-0-0---0-0-0-0----0--0--0--0---0-0-0-0--| (x2)
   G --7-7-7-7---0-0-0-0---11-11-11-11---7-7-7-7--|
   G --7-7-7-7---0-0-0-0---11-11-11-11---6-6-6-6--|

   D -----------------------------------------------|
   B -----------------------------------------------|
   G -7b-----9^6-6--------7-7b------7--4-6-6--7-7b--|
2  D -----------------------------------------------| (x2)
   G -----------------------------------------------|
   G -----------------------------------------------|



 Verse 1: (0:43)

   D --0-0-0-0---0-0-0-0----0--0--0--0---0-0-0-0--|
   B --0-0-0-0---0-0-0-0----0--0--0--0---0-0-0-0--|
   G --7-7-7-7---7-7-7-7---11-11-11-11---7-7-7-7--|
1  D --0-0-0-0---0-0-0-0----0--0--0--0---0-0-0-0--|
   G --7-7-7-7---0-0-0-0---11-11-11-11---7-7-7-7--|
   G --7-7-7-7---0-0-0-0---11-11-11-11---6-6-6-6--|

   D -----------------------------------------------|
   B -----------------------------------------------|
   G -7b-----9^6-6--------7-7b------7--4-6-6--7-7b--|
2  D -----------------------------------------------|
   G -----------------------------------------------|
   G -----------------------------------------------|
      will we both be happy to stand alone


   D --0-0-0-0---0-0-0-0----0--0--0--0---0-0-0-0--|
   B --0-0-0-0---0-0-0-0----0--0--0--0---0-0-0-0--|
   G --7-7-7-7---7-7-7-7---11-11-11-11---7-7-7-7--|
1  D --0-0-0-0---0-0-0-0----0--0--0--0---0-0-0-0--|
   G --7-7-7-7---0-0-0-0---11-11-11-11---7-7-7-7--|
   G --7-7-7-7---0-0-0-0---11-11-11-11---6-6-6-6--|

   D -----------------------------------------------|
   B -----------------------------------------------|
   G -7b-----9^6-6--------7-7b------7--4-6-6--7-7b--|
2  D -----------------------------------------------|
   G -----------------------------------------------|
   G -----------------------------------------------|
      I can't see forever, where will I go


 Br1dge: (0:56)

   D --0-0-0-0--0-0-0-0---0--0--0--0--0-0-0-0--|
   B --0-0-0-0--0-0-0-0---0--0--0--0--0-0-0-0--|
   G --7-7-7-7--7-7-7-7--11-11-11-11--9-9-9-9--|
1  D --0-0-0-0--0-0-0-0---0--0--0--0--0-0-0-0--|
   G --7-7-7-7--7-7-7-7--11-11-11-11--9-9-9-9--|
   G --7-7-7-7--6-6-7-7--11-11-11-11--9-9-9-9--|

   D -----------------------------------------------|
   B ------7b-----------5--7--------------5---------|
   G -6-7b----------------------------7--------(6)--|
2  D -----------------------------------------------|
   G -----------------------------------------------|
   G -----------------------------------------------|
      I'll stop thinking, I will be ordinary (your)


   D --0-0-0-0--0-0-0-0---0--0--0--0--0-0-0-0---0--0--0--0--|
   B --0-0-0-0--0-0-0-0---0--0--0--0--0-0-0-0---5--5--5--5--|
   G --7-7-7-7--7-7-7-7--11-11-11-11--9-9-9-9---7--7--7--7--|
1  D --0-0-0-0--0-0-0-0---0--0--0--0--0-0-0-0---0--0--0--0--|
   G --7-7-7-7--7-7-7-7--11-11-11-11--9-9-9-9---7--7--7--7--|
   G --7-7-7-7--6-6-7-7--11-11-11-11--9-9-9-9---7--7--7--7--|

   D -----------------------------------------------|
   B -----7b-----------5--7--------------5----------|
   G -7b------------------------------7--------7----|
2  D -----------------------------------------------|
   G -----------------------------------------------|
   G -----------------------------------------------|
      laughter kills me, you can't hurt me that won't matter at all


 (1:13)

   D --0-0-0-0---0-0-0-0----0--0--0--0---0-0-0-0--|
   B --0-0-0-0---0-0-0-0----0--0--0--0---0-0-0-0--|
   G --7-7-7-7---7-7-7-7---11-11-11-11---7-7-7-7--|
1  D --0-0-0-0---0-0-0-0----0--0--0--0---0-0-0-0--| (x2)
   G --7-7-7-7---0-0-0-0---11-11-11-11---7-7-7-7--|
   G --7-7-7-7---0-0-0-0---11-11-11-11---6-6-6-6--|

   D -----------------------------------------------|
   B -----------------------------------------------|
   G -7b-----9^6-6--------7-7b------7--4-6-6--7-7b--|
2  D -----------------------------------------------| (x2)
   G -----------------------------------------------|
   G -----------------------------------------------|



 Verse 2: (1:28)

   D --0-0-0-0---0-0-0-0----0--0--0--0---0-0-0-0--|
   B --0-0-0-0---0-0-0-0----0--0--0--0---0-0-0-0--|
   G --7-7-7-7---7-7-7-7---11-11-11-11---7-7-7-7--|
1  D --0-0-0-0---0-0-0-0----0--0--0--0---0-0-0-0--|
   G --7-7-7-7---0-0-0-0---11-11-11-11---7-7-7-7--|
   G --7-7-7-7---0-0-0-0---11-11-11-11---6-6-6-6--|

   D -----------------------------------------------|
   B -----------------------------------------------|
   G -7b-----9^6-6--------7-7b------7--4-6-6--7-7b--|
2  D -----------------------------------------------|
   G -----------------------------------------------|
   G -----------------------------------------------|
      so we've stayed together despite our rows


   D --0-0-0-0---0-0-0-0----0--0--0--0---0-0-0-0--|
   B --0-0-0-0---0-0-0-0----0--0--0--0---0-0-0-0--|
   G --7-7-7-7---7-7-7-7---11-11-11-11---7-7-7-7--|
1  D --0-0-0-0---0-0-0-0----0--0--0--0---0-0-0-0--|
   G --7-7-7-7---0-0-0-0---11-11-11-11---7-7-7-7--|
   G --7-7-7-7---0-0-0-0---11-11-11-11---6-6-6-6--|

   D -----------------------------------------------|
   B -----------------------------------------------|
   G -7b-----9^6-6--------7-7b------7--4-6-6--7-7b--|
2  D -----------------------------------------------|
   G -----------------------------------------------|
   G -----------------------------------------------|
      and we're holding back so we won't explode



 Br1dge: (1:40)

   D --0-0-0-0--0-0-0-0---0--0--0--0--0-0-0-0--|
   B --0-0-0-0--0-0-0-0---0--0--0--0--0-0-0-0--|
   G --7-7-7-7--7-7-7-7--11-11-11-11--9-9-9-9--|
1  D --0-0-0-0--0-0-0-0---0--0--0--0--0-0-0-0--|
   G --7-7-7-7--7-7-7-7--11-11-11-11--9-9-9-9--|
   G --7-7-7-7--6-6-7-7--11-11-11-11--9-9-9-9--|

   D -----------------------------------------------|
   B ------7b-----------5--7--------------5---------|
   G -6-7b----------------------------7--------(6)--|
2  D -----------------------------------------------|
   G -----------------------------------------------|
   G -----------------------------------------------|
      I'll stop thinking, I will be ordinary (your)


   D --0-0-0-0--0-0-0-0---0--0--0--0--0-0-0-0---0--0--0--0--|
   B --0-0-0-0--0-0-0-0---0--0--0--0--0-0-0-0---5--5--5--5--|
   G --7-7-7-7--7-7-7-7--11-11-11-11--9-9-9-9---7--7--7--7--|
1  D --0-0-0-0--0-0-0-0---0--0--0--0--0-0-0-0---0--0--0--0--|
   G --7-7-7-7--7-7-7-7--11-11-11-11--9-9-9-9---7--7--7--7--|
   G --7-7-7-7--6-6-7-7--11-11-11-11--9-9-9-9---7--7--7--7--|

   D -----------------------------------------------|
   B -----7b-----------5--7--------------5----------|
   G -7b------------------------------7--------7----|
2  D -----------------------------------------------|
   G -----------------------------------------------|
   G -----------------------------------------------|
      laughter kills me, you can't hurt me that won't matter at all



 Chorus: (1:58)

   D --0-0-0-0-0--0-0--0-0-0-0-----0-0---0-0---0-0---0-0---0--0---0--|
   B --0-0-0-0-0--0-0--0-0-0-0-----0-0---0-0---0-0---0-0---0--0---0--|
   G --7-7-7-7-7--7-7--7-7-7-7-----4-4---6-6---7-7---9-9--11-11--12--|
1  D --0-0-0-0-0--0-0--0-0-0-0-----0-0---0-0---0-0---0-0---0--0---0--|
   G --7-7-7-7-7--6-6--7-7-7-7-----4-4---6-6---7-7---9-9--11-11--12--|
   G --7-7-7-7-7--6-6--7-7-7-7-----4-4---6-6---7-7---9-9--11-11--12--|

   D ---------------------------------------------------------------|
   B ---------------------------------------------------------------|
   G -----------6h7-6--6h7--------4-6^7^6-------7----9----11----12--|
2  D ---------7-----------------------------------------------------|
   G ---------------------------------------------------------------|
   G ---------------------------------------------------------------|
      it's in the stadiums and in the biggest rooms we want too belong


   D --0-0-0-0-0--0-0--0-0-0-0---0-0--0-0--0-0--0-0---0--0---0---0-0-0-(0)--|
   B --0-0-0-0-0--0-0--0-0-0-0---0-0--0-0--0-0--0-0---0--0---0---0-0-0-(0)--|
   G --7-7-7-7-7--7-7--7-7-7-7---4-4--6-6--7-7--9-9--11-11--12---6-6-6-(7)--|
1  D --0-0-0-0-0--0-0--0-0-0-0---0-0--0-0--0-0--0-0---0--0---0---0-0-0-(0)--|
   G --7-7-7-7-7--6-6--7-7-7-7---4-4--6-6--7-7--9-9--11-11--12---6-6-6-(7)--|
   G --7-7-7-7-7--6-6--7-7-7-7---4-4--6-6--7-7--9-9--11-11--12---6-6-6-(7)--|

   D -----------------------------------------------------------------------|
   B -----------------------------------------------------------------------|
   G -----------6h7-6--6h7--------4-6^7^6---7----9----11----12---6--6--(7)--|
2  D ---------7-------------------------------------------------------------|
   G -----------------------------------------------------------------------|
   G -----------------------------------------------------------------------|
      I am mistaken it's in the biggest rooms it all goes wrong


 (2:19)

   D --0-0-0-0---0-0-0-0----0--0--0--0---0-0-0-0--|
   B --0-0-0-0---0-0-0-0----0--0--0--0---0-0-0-0--|
   G --7-7-7-7---7-7-7-7---11-11-11-11---7-7-7-7--|
1  D --0-0-0-0---0-0-0-0----0--0--0--0---0-0-0-0--| (x2)
   G --7-7-7-7---0-0-0-0---11-11-11-11---7-7-7-7--|
   G --7-7-7-7---0-0-0-0---11-11-11-11---6-6-6-6--|

   D -----------------------------------------------|
   B -----------------------------------------------|
   G -7b-----9^6-6--------7-7b------7--4-6-6--7-7b--|
2  D -----------------------------------------------| (x2)
   G -----------------------------------------------|
   G -----------------------------------------------|



 Verse 3: (2:34)

   D --0-0-0-0---0-0-0-0----0--0--0--0---0-0-0-0--|
   B --0-0-0-0---0-0-0-0----0--0--0--0---0-0-0-0--|
   G --7-7-7-7---7-7-7-7---11-11-11-11---7-7-7-7--|
1  D --0-0-0-0---0-0-0-0----0--0--0--0---0-0-0-0--|
   G --7-7-7-7---0-0-0-0---11-11-11-11---7-7-7-7--|
   G --7-7-7-7---0-0-0-0---11-11-11-11---6-6-6-6--|

   D -----------------------------------------------|
   B -----------------------------------------------|
   G -7b-----9^6-6--------7-7b------7--4-6-6--7-7b--|
2  D -----------------------------------------------|
   G -----------------------------------------------|
   G -----------------------------------------------|
      so we know more now then we'll ever know


   D --0-0-0-0---0-0-0-0----0--0--0--0---0-0-0-0--|
   B --0-0-0-0---0-0-0-0----0--0--0--0---0-0-0-0--|
   G --7-7-7-7---7-7-7-7---11-11-11-11---7-7-7-7--|
1  D --0-0-0-0---0-0-0-0----0--0--0--0---0-0-0-0--|
   G --7-7-7-7---0-0-0-0---11-11-11-11---7-7-7-7--|
   G --7-7-7-7---0-0-0-0---11-11-11-11---6-6-6-6--|

   D -----------------------------------------------|
   B -----------------------------------------------|
   G -7b-----9^6-6--------7-7b------7--4-6-6--7-7b--|
2  D -----------------------------------------------|
   G -----------------------------------------------|
   G -----------------------------------------------|
      and we're holding back so we won't explode



 Br1dge: (2:47)

   D --0-0-0-0--0-0-0-0---0--0--0--0--0-0-0-0--|
   B --0-0-0-0--0-0-0-0---0--0--0--0--0-0-0-0--|
   G --7-7-7-7--7-7-7-7--11-11-11-11--9-9-9-9--|
1  D --0-0-0-0--0-0-0-0---0--0--0--0--0-0-0-0--|
   G --7-7-7-7--7-7-7-7--11-11-11-11--9-9-9-9--|
   G --7-7-7-7--6-6-7-7--11-11-11-11--9-9-9-9--|

   D -----------------------------------------------|
   B ------7b-----------5--7--------------5---------|
   G -6-7b----------------------------7--------(6)--|
2  D -----------------------------------------------|
   G -----------------------------------------------|
   G -----------------------------------------------|
      I'll stop thinking, I will be ordinary (your)


   D --0-0-0-0--0-0-0-0---0--0--0--0--0-0-0-0---0--|
   B --0-0-0-0--0-0-0-0---0--0--0--0--0-0-0-0---5--|
   G --7-7-7-7--7-7-7-7--11-11-11-11--9-9-9-9---7--|
1  D --0-0-0-0--0-0-0-0---0--0--0--0--0-0-0-0---0--|
   G --7-7-7-7--7-7-7-7--11-11-11-11--9-9-9-9---7--|
   G --7-7-7-7--6-6-7-7--11-11-11-11--9-9-9-9---7--|

   D -----------------------------------------------------(12b)-|
   B -----7b-----------5--7--------------5----------------------|
   G -7b------------------------------7--------7----------------|
2  D -----------------------------------------------------------|
   G -----------------------------------------------------------|
   G -----------------------------------------------------------|
      laughter kills me, you can't hurt me that won't matter at all



 Chorus: (3:04)

   D --0-0-0-0-0--0-0--0-0-0-0-----0-0---0-0---0-0---0-0---0--0---0--|
   B --0-0-0-0-0--0-0--0-0-0-0-----0-0---0-0---0-0---0-0---0--0---0--|
   G --7-7-7-7-7--7-7--7-7-7-7-----4-4---6-6---7-7---9-9--11-11--12--|
1  D --0-0-0-0-0--0-0--0-0-0-0-----0-0---0-0---0-0---0-0---0--0---0--|
   G --7-7-7-7-7--6-6--7-7-7-7-----4-4---6-6---7-7---9-9--11-11--12--|
   G --7-7-7-7-7--6-6--7-7-7-7-----4-4---6-6---7-7---9-9--11-11--12--|

   D ---------------------------------------------------------------|
   B ---------------------------------------------------------------|
   G -----------6h7-6--6h7--------4-6^7^6-------7----9----11----12--|
2  D ---------7-----------------------------------------------------|
   G ---------------------------------------------------------------|
   G ---------------------------------------------------------------|
      it's in the stadiums and in the biggest rooms we want too belong


   D --0-0-0-0-0--0-0--0-0-0-0---0-0--0-0--0-0--0-0---0--0---0---0-0-0--0--|
   B --0-0-0-0-0--0-0--0-0-0-0---0-0--0-0--0-0--0-0---0--0---0---0-0-0--0--|
   G --7-7-7-7-7--7-7--7-7-7-7---4-4--6-6--7-7--9-9--11-11--12---6-6-6--7--|
1  D --0-0-0-0-0--0-0--0-0-0-0---0-0--0-0--0-0--0-0---0--0---0---0-0-0--0--|
   G --7-7-7-7-7--6-6--7-7-7-7---4-4--6-6--7-7--9-9--11-11--12---6-6-6--7--|
   G --7-7-7-7-7--6-6--7-7-7-7---4-4--6-6--7-7--9-9--11-11--12---6-6-6--7--|

   D -----------------------------------------------------------------|
   B -----------------------------------------------------------------|
   G -----------6h7-6--6h7--------4-6^7^6---7----9----11----12---6----|
2  D ---------7-------------------------------------------------------|
   G -----------------------------------------------------------------|
   G -----------------------------------------------------------------|
      I am mistaken it's in the biggest rooms it all goes wrong
Tap to rate this tab
# A B C D E F G H I J K L M N O P Q R S T U V W X Y Z