Song name
# A B C D E F G H I J K L M N O P Q R S T U V W X Y Z

Matt Pond Pa - Fairlee tab

Title:  'Fairlee'
Artist: matt pond PA (mattpondpa.com)
Album:  The Nature Of Maps
Tabbed by Jorge Díaz (j_diaz_s@yahoo.com)


 Note: Tune the 6th string from E to G.
       Tune the 5th String from A to G.
       Tune the 1st string from E to D.
       Use Capo on 1st Fret


 Intro:

   D --7--7--7--7--7--7--7--7--7--7--7--7--7--7--|
   B --7--7--7--7--7--7--7--7--7--7--7--7--7--7--|
   G --7--7--7--7--7--7--7--7--7--7--7--7--7--7--|
1  D --7--7--7--7--7--7--7--7--7--7--7--7--7--7--|
   G --7--7--7--7--7--7--7--7--7--7--7--7--7--7--|
   G --7--7--7--7--7--7--7--7--7--7--7--7--7--7--|

   D -7--9-7--9-7-------7--9-7--9-7--------------|
   B -------------7-----------------7-5-3-2------|
   G ----------------------------------------2b--|
2  D --------------------------------------------|
   G --------------------------------------------|
   G --------------------------------------------|



 Verse 1 - 2: (0:14)

D --7--7--7--7--7--7--7--7--7--7--7--7--7--7--7--|
B --7--7--7--7--7--7--7--7--7--7--7--7--7--7--7--|
G --7--7--7--7--7--7--7--7--7--7--7--7--7--7--7--|
D --7--7--7--7--7--7--7--7--7--7--7--7--7--7--7--|
G --7--7--7--7--7--7--7--7--7--7--7--7--7--7--7--|
G --7--7--7--7--7--7--7--7--7--7--7--7--7--7--7--|
  Under the overpass, way out in fairlee they were

D --2--2--2--2--2--2--2--2---------|
B --2--2--2--2--2--2--2--2--7-5-7--|
G --2--2--2--2--2--2--2--2---------|
D --2--2--2--2--2--2--2--2---------|
G --2--2--2--2--2--2--2--2---------|
G --2--2--2--2--2--2--2--2---------|
   saying, I'm convinced



D --7--7--7--7--7--7--7--7--7--7--7--7--7--7--7--|
B --7--7--7--7--7--7--7--7--7--7--7--7--7--7--7--|
G --7--7--7--7--7--7--7--7--7--7--7--7--7--7--7--|
D --7--7--7--7--7--7--7--7--7--7--7--7--7--7--7--|
G --7--7--7--7--7--7--7--7--7--7--7--7--7--7--7--|
G --7--7--7--7--7--7--7--7--7--7--7--7--7--7--7--|
  The city has its cards, a fuel-less fire will always 

D --2--2--2--2--2--2--2--2--2---------|
B --2--2--2--2--2--2--2--2--2--7-5-7--|
G --2--2--2--2--2--2--2--2--2---------|
D --2--2--2--2--2--2--2--2--2---------|
G --2--2--2--2--2--2--2--2--2---------|
G --2--2--2--2--2--2--2--2--2---------|
  fade, keep your hands warm



 Bridge: (0:43)

D --0--0--0--0--0--0--0--0--0--0---2--2--2--2--2--2--|
B --0--0--0--0--0--0--0--0--0--0---2--2--2--2--2--2--|
G --0--0--0--0--0--0--0--0--0--0---2--2--2--2--2--2--|
D --0--0--0--0--0--0--0--0--0--0---2--2--2--2--2--2--|
G --0--0--0--0--0--0--0--0--0--0---2--2--2--2--2--2--|
G --0--0--0--0--0--0--0--0--0--0---2--2--2--2--2--2--|
  lock all the shutters when the wind returns

D --0--0--0--0--0--0--0--0--0--0--0--0--0---2--2--2--2--|
B --0--0--0--0--0--0--0--0--0--0--0--0--0---2--2--2--2--|
G --0--0--0--0--0--0--0--0--0--0--0--0--0---2--2--2--2--|
D --0--0--0--0--0--0--0--0--0--0--0--0--0---2--2--2--2--|
G --0--0--0--0--0--0--0--0--0--0--0--0--0---2--2--2--2--|
G --0--0--0--0--0--0--0--0--0--0--0--0--0---2--2--2--2--|
  brought with it are convictions considered arguable



 Chorus 1: (0:56)

D --7--7--7--7--7--7--7--7----0--0--0--0--0---7--7--7--|
B --7--7--7--7--7--7--7--7----0--0--0--0--0---7--7--7--|
G --7--7--7--7--7--7--7--7----0--0--0--0--0---7--7--7--|
D --7--7--7--7--7--7--7--7----0--0--0--0--0---7--7--7--|
G --7--7--7--7--7--7--7--7----0--0--0--0--0---7--7--7--|
G --7--7--7--7--7--7--7--7----0--0--0--0--0---7--7--7--|
   it turns  -  in time  -  reflects  -  your eyes



 (1:10)

   D --7--7--7--7--7--7--7--7--7--7--7--7--7--7--|
   B --7--7--7--7--7--7--7--7--7--7--7--7--7--7--|
   G --7--7--7--7--7--7--7--7--7--7--7--7--7--7--|
1  D --7--7--7--7--7--7--7--7--7--7--7--7--7--7--|
   G --7--7--7--7--7--7--7--7--7--7--7--7--7--7--|
   G --7--7--7--7--7--7--7--7--7--7--7--7--7--7--|

   D -------9-7--9-7-----9-7--9-7--7-----------------|
   B -3^10b----------7---------------7^5^3-3^2-0-----|
   G ----------------------------------------4-2-4-2-|
2  D ------------------------------------------------|
   G ------------------------------------------------|
   G ------------------------------------------------|



 Verse 3 - 4: (1:25)

D --7--7--7--7--7--7--7--7--7--7--7--7--7--7--7--|
B --7--7--7--7--7--7--7--7--7--7--7--7--7--7--7--|
G --7--7--7--7--7--7--7--7--7--7--7--7--7--7--7--|
D --7--7--7--7--7--7--7--7--7--7--7--7--7--7--7--|
G --7--7--7--7--7--7--7--7--7--7--7--7--7--7--7--|
G --7--7--7--7--7--7--7--7--7--7--7--7--7--7--7--|
  Beyond the critical, beyond the highway is not

D --2--2--2--2--2--2--2--2---------|
B --2--2--2--2--2--2--2--2--7-5-7--|
G --2--2--2--2--2--2--2--2---------|
D --2--2--2--2--2--2--2--2---------|
G --2--2--2--2--2--2--2--2---------|
G --2--2--2--2--2--2--2--2---------|
   safe, cars move slow



D --7--7--7--7--7--7--7--7--7--7--7--7--7--7--7--|
B --7--7--7--7--7--7--7--7--7--7--7--7--7--7--7--|
G --7--7--7--7--7--7--7--7--7--7--7--7--7--7--7--|
D --7--7--7--7--7--7--7--7--7--7--7--7--7--7--7--|
G --7--7--7--7--7--7--7--7--7--7--7--7--7--7--7--|
G --7--7--7--7--7--7--7--7--7--7--7--7--7--7--7--|
  Against a backdrop fades, an insulated formless

D --2--2--2--2--2--2--2--2---------|
B --2--2--2--2--2--2--2--2--7-5-7--|
G --2--2--2--2--2--2--2--2---------|
D --2--2--2--2--2--2--2--2---------|
G --2--2--2--2--2--2--2--2---------|
G --2--2--2--2--2--2--2--2---------|
   shape, falling snow builds



 Bridge: (1:53)

D --0--0--0--0--0--0--0--0--0--0---2--2--2--2--2--2--|
B --0--0--0--0--0--0--0--0--0--0---2--2--2--2--2--2--|
G --0--0--0--0--0--0--0--0--0--0---2--2--2--2--2--2--|
D --0--0--0--0--0--0--0--0--0--0---2--2--2--2--2--2--|
G --0--0--0--0--0--0--0--0--0--0---2--2--2--2--2--2--|
G --0--0--0--0--0--0--0--0--0--0---2--2--2--2--2--2--|
  there is a bare light that could catch your eyes

D --0--0--0--0--0--0--0--0--0--0--0--0--0---2--2--2--2--|
B --0--0--0--0--0--0--0--0--0--0--0--0--0---2--2--2--2--|
G --0--0--0--0--0--0--0--0--0--0--0--0--0---2--2--2--2--|
D --0--0--0--0--0--0--0--0--0--0--0--0--0---2--2--2--2--|
G --0--0--0--0--0--0--0--0--0--0--0--0--0---2--2--2--2--|
G --0--0--0--0--0--0--0--0--0--0--0--0--0---2--2--2--2--|
  had the whole place on its feet rethink what is valuable


 Chorus 1: (2:06)

D --7--7--7--7--7--7--7--7----0--0--0--0--0---7--7--7--|
B --7--7--7--7--7--7--7--7----0--0--0--0--0---7--7--7--|
G --7--7--7--7--7--7--7--7----0--0--0--0--0---7--7--7--|
D --7--7--7--7--7--7--7--7----0--0--0--0--0---7--7--7--|
G --7--7--7--7--7--7--7--7----0--0--0--0--0---7--7--7--|
G --7--7--7--7--7--7--7--7----0--0--0--0--0---7--7--7--|
   it turns  -  in time  -  reflects  -  the light


 (2:21)

D --7--7--7--7---------7--7--7--7---------7--7--|
B --7--7--7--7--7-5-7--7--7--7--7--7-5-7--7--7--|
G --7--7--7--7---------7--7--7--7---------7--7--|
D --7--7--7--7---------7--7--7--7---------7--7--| (x2)
G --7--7--7--7---------7--7--7--7---------7--7--|
G --7--7--7--7---------7--7--7--7---------7--7--|


 (2:35)

D --7--7--7--7--7--7--7--7--7--7--7--7--|
B --7--7--7--7--7--7--7--7--7--7--7--7--|
G --7--7--7--7--7--7--7--7--7--7--7--7--|
D --7--7--7--7--7--7--7--7--7--7--7--7--|
G --7--7--7--7--7--7--7--7--7--7--7--7--|
G --7--7--7--7--7--7--7--7--7--7--7--7--|
  In a derailment, article claiming,

D --0--0--0--0--0--0--0--0--0--0--0--0--|
B --0--0--0--0--0--0--0--0--0--0--0--0--|
G --0--0--0--0--0--0--0--0--0--0--0--0--|
D --0--0--0--0--0--0--0--0--0--0--0--0--|
G --0--0--0--0--0--0--0--0--0--0--0--0--|
G --0--0--0--0--0--0--0--0--0--0--0--0--|
  that you're not fit and you don't have

D --7--7--7--7--7--7--7--7--|
B --7--7--7--7--7--7--7--7--|
G --7--7--7--7--7--7--7--7--|
D --7--7--7--7--7--7--7--7--|
G --7--7--7--7--7--7--7--7--|
G --7--7--7--7--7--7--7--7--|
  names not worth naming


D --7--7--7--7--7--7--7--7--7--7--7--7--7--|
B --7--7--7--7--7--7--7--7--7--7--7--7--7--|
G --7--7--7--7--7--7--7--7--7--7--7--7--7--|
D --7--7--7--7--7--7--7--7--7--7--7--7--7--|
G --7--7--7--7--7--7--7--7--7--7--7--7--7--|
G --7--7--7--7--7--7--7--7--7--7--7--7--7--|
  At that is something, right in the center

D --0--0--0--0--0--0--0--0--0--0--0--0--|
B --0--0--0--0--0--0--0--0--0--0--0--0--|
G --0--0--0--0--0--0--0--0--0--0--0--0--|
D --0--0--0--0--0--0--0--0--0--0--0--0--|
G --0--0--0--0--0--0--0--0--0--0--0--0--|
G --0--0--0--0--0--0--0--0--0--0--0--0--|
  you see yourself and you don't know

D --7--7--7--7--7--7--7--7--|
B --7--7--7--7--7--7--7--7--|
G --7--7--7--7--7--7--7--7--|
D --7--7--7--7--7--7--7--7--|
G --7--7--7--7--7--7--7--7--|
G --7--7--7--7--7--7--7--7--|
  at least you got mentioned


 Outro: (3:04)

   D --7--7--7--7--7--7--7--7--7--7--7--|
   B --7--7--7--7--7--7--7--7--7--7--7--|
   G --7--7--7--7--7--7--7--7--7--7--7--|
1  D --7--7--7--7--7--7--7--7--7--7--7--|
   G --7--7--7--7--7--7--7--7--7--7--7--|
   G --7--7--7--7--7--7--7--7--7--7--7--|

   D -----------------------------------|
   B -----------------------------------|
   G --6--7--6h7--6h7---6--7--6h7--6h7--|
2  D -----------------------------------|
   G -----------------------------------|
   G -----------------------------------|
Tap to rate this tab
 
# A B C D E F G H I J K L M N O P Q R S T U V W X Y Z