Guitaretab - guitar tabs
Song name
# A B C D E F G H I J K L M N O P Q R S T U V W X Y Z

Matt Pond Pa - Kc tab

Highlighted       Show chord diagrams
Title:  'KC'
Artist: matt pond PA (
Album:  Emblems
Tabbed by Jorge Díaz (

First of all, matt pond PA songs are GREAT but not so easy to figure out. Second, I
am bad to remember the names of some notes... so i'll use simbols to indicate they
are variations of other notes.

         E A D G B E

Em     --0-2-2-0-0-0--|
Em*    --0-2-2-0-0-3--|
Am7    --0-0-2-0-1-3--|
Csus4  --x-3-2-0-1-3--|
B      --x-2-0-0-1-3--|
F#     --2-0-0-0-1-3--|
G      --3-2-0-0-0-3--|

(Capo on 2nd fret)


E ----------------|
B ----------------|
G ----------------|
D ----------------|
A ----------------| (x3)
E -0-0-0000000-0--|

 Verse 1: (0:05)

i remember you
do you remember me
	       Csus4		    B		Em
there’s no way to the heart better than awkwardly
in Canada on new year’s eve
			Csus4		        B    F#
you said you’d never seen someone bleed like i bleed
perhaps i was on

 Riff 1: (0:28) (Guitar one plays the chords showed bellow this, Guitar 2 plays the rest)

   Am7		Em*	 Am7	      Csus4   B  F# G

E --3-3-3-3-3-3-3-3-3-3---3-3-3-3-3-3---2-2-2-3-3-3-3-|
B -1---1-1---1-0---0-0---1---1-1---1-0-------1---1-1--|
G -------------------------------------2---2----------|
D ----------------------------------------------------|
A ----------------------------------------------------|
E ----------------------------------------------------|

 Riff 2: (0:42)

   Em        Am7           Csus4     	 Em
[ Tab from: ]
E ---------------------------------------------------|
B -0-00-00-00-11-11-11-11---------------0-00-00-00---|
G --0--0--0--0--0--0--0--0-22-22-22-22---0--0--0--0--|
D ---------------------------0--0--0--0--------------|
A ---------------------------------------------------|
E ---------------------------------------------------|

 Verse 2: (0:53)

(Guitar 2 plays Riff 2 during this verse)

the shaking hands
the hands we’ll shake
there’s nothing that we’ve done you could call a mistake
we wore ourselves into the ground
the humming of the traffic on st. catherine’s
breaks the slow fall down

 Chorus 1: (1:17)

(Guitar 2 plays Riff 1 during Chorus)

Am7			 Em*
the truth is behind the hotel
the body’s underneath the maple tree
    B			   F#
the leaves turned red when you killed me
Am7		Em*
startled by the saint’s river
	Csus4			       B
i won’t reduce the complications to the warmer nights
     F#			G
when i did not know you

E -33-3-33-33-33--0--0--|
B -00-0-11-11-00--0--0--|
G -00-0-00-00-00--0--0--| (x3)
D -00-0-00-22-22--2--2--|
A -00-0-22-33-22--2--2--|
E -22-2-33-xx-00--0--0--|

 Now, play this during the SECOND and THIRD time you play the previous part.

E --10---10-10-10---10-10-10---8---7-|
B -8-------8--8-------8-------7--5---|
G -----------------------------------|
D -----------------------------------|
A -----------------------------------|
E -----------------------------------|

Then play this:

E ----------------|
B ----------------|
G ----------------|
D ----------------|
A ----------------| (x2)
E -0-0-0000000-0--|

 [ Repeat Riff 2 ]

 Chorus 2: (Same as Chorus 1) (2:21)

the truth is under the water
finally silent i could hear you speak
about the leaves and killing me
shaken by the saint’s river
there’s nothing that we’ve done that could be wrong
it’s the only way we’ll ever understand

 Ending: (2:42)

E ---3---3---3---3--|
B ---1---1---1---0--|
G ---0---0---0---0--|
D ---0---0---0---0--|
A -2-2-0-0---0---0--|
E ---x---x-3-3-2-2--|
Related for Kc tab