Song name
# A B C D E F G H I J K L M N O P Q R S T U V W X Y Z

Matt Pond Pa - Canadian Song tab

Highlighted       Show chord diagrams
Title:  'Canadian Song'
Artist: matt pond PA (mattpondpa.com)
Album:  The Green Fury
Tabbed by Jorge Díaz (j_diaz_s@yahoo.com)


 Note: Tune the 6th string from E to G

       G A D G B E

Am7  --0-0-2-0-1-0--|
G    --0-0-0-0-0-3--|


 Intro:

E -------5--3--|
B ---3---------|
G -0---0-------|
D -------------|
A -------------|
G -------------|


 [ Am7   G   Am7   G ]


 Verse 1: (0:17)

                Am7               G
turn home from bars and weaving closets full
              Am7                      G
of stuttered turns when pedals redden roads
                   Am7                G
we'd pass through farms, the orchards are aligned
               Am7                        G
it looks too slow as we lay against the floor


 (0:47)

    Am7         G	     Am7          G
E -7r5-7r5-7r5--5r3-5r3-5r3--3r2-3r2-3r2--0--0--0---|
B ------------------------------------------3--3--3-| (x2)
G --------------------------------------------------|
D --------------------------------------------------|
A --------------------------------------------------|
G --------------------------------------------------|


 Verse 2: (1:14)

             Am7          G
the green fury becomes a monument
               Am7                           G
slips off the road and new years become new lines
            Am7             G
we didn't see the lights against the sky
            Am7                       G
we didn't see we were too far up the road


 Chorus: (1:46) (Just play chords a BIT faster than the verse) 

Am7                        G
  it's how canadians must feel
                         Am7
everything they see is real
                       G
my palms were made to match my eyes
Am7                         G
  it's how canadians watch days 
                        Am7
in a million different ways 
                  G
and i am for the northern side


(The first 2 times let the strings ring before playing next chord)
           Am7             G
watch the signs turn into lines (x4)
 

 Outro: (2:42)

    Am7         G	     Am7          G
E -7r5-7r5-7r5--5r3-5r3-5r3--3r2-3r2-3r2--0--0--0---|
B ------------------------------------------3--3--3-| (x2)
G --------------------------------------------------|
D --------------------------------------------------|
A --------------------------------------------------|
G --------------------------------------------------|
Tap to rate this tab
 
# A B C D E F G H I J K L M N O P Q R S T U V W X Y Z