Song name
# A B C D E F G H I J K L M N O P Q R S T U V W X Y Z

Matt Pond Pa - Put Your Hair Down tab

Title:  'Put Your Hair Down'
Artist: matt pond PA (mattpondpa.com)
Album:  I Thought You Were Sleeping
Tabbed by Jorge Díaz (j_diaz_s@yahoo.com)


            E A D G B E

Cadd9sus4 --x-3-2-0-3-0--|
Dsus4     --x-x-0-2-3-0--|
G         --3-2-0-0-3-3--|
Em7       --0-2-2-0-3-0--|
Cadd9     --x-3-2-0-3-3--|
Dsus2     --x-x-0-2-3-3--|
Em7sus2   --0-2-2-0-3-3--|



 Intro:

Gtr 1

E -3333------------------------------------------------|
B -3333------------------------------------------------| 
G -0000------------------------------------------------|
D -2222------0----------0------------0----------0------|
A -3333--------3-2--------2-3----------3-2--------2-3--| 
E -------3-3--------3-3----------3-3--------3-3--------|


Gtr 2: (along Gtr 1)

E -----------------------|
B -----3-1-0------3-0-1--| (x2)
G -0-0--------0-0--------|
D -----------------------|
A -----------------------|
E -----------------------|


 Verse 1: (0:16)

Cadd9sus4	Dsus4
put your nature in the dirty turn
G		     Em7
pull it out you found that you've gone bad
Cadd9sus4		Dsus4
like stones we dream to only stay asleep
G		      Em7
there's no forgetting


 Bridge: (0:30) (Guitar 1 plays the same chords as verse, Guitar 2 plays Riff 1 during Bridge)


 Riff 1: 

 Cadd9sus4   Dsus4	  G	       Em7
E ---------------------------------------------------|
B ------0------------3------------3------------3-3---|
G ---0-0-0------0-0-0-0------0-0-0-0------0-0-0---0--|
D ---------------------------------------------------|
A ---------------------------------------------------|
E ---------------------------------------------------|


put your hair down, put your hair down
it's time to find out who you really are
too careful in the light of permanence
there's only seconds


 Chorus: (0:44) (Guitar 2 plays Riff 2 during the chorus)

 Riff 2:    

E -3---3-----|
B --3-3-3-3--|
G ---0---0---|
D -----------|
A -----------|
E -----------|

Cadd9		Dsus2	      G
and though you say we go too far
Em7sus2
it's not enough to know your name 
Cadd9	    Dsus2	    G
around the hedges you hide so hard
Em7sus2
it's not enough to know your name
Cadd9
not enough to know your name


 [ Repeat Intro ]


 Verse 2: (1:16)

wouldn't ask, it couldn't be explained
reasons and resistance are a lie
how the functions added up to shame
when no one's looking

put your hair down, put your hair down
it's time to find out who you really are
too careful killed the meaning that you meant
when there's no time left

and though you say we go too far
it's not enough to know your name
around the hedges you hide so hard
it's not enough to know your name
not enough to know your name 


 [ Repeat Intro] 


 Outro:

 Riff 3: (2:17) Only Gtr 2

E -7-7-5-5-2-2-2-3-2---7-7-5-5-2-2-2-3----|
B -------------------------------------3--| (x2)
G ----------------------------------------|
D ----------------------------------------|
A ----------------------------------------|
E ----------------------------------------|

Then only Guitar 1: (let the strings ring before playing next chord)

Cadd9sus4	Dsus4	    G	       Em7
Cadd9sus4	Dsus4	    G	       Em7

Then Gtr 1 plays cadd9sus4 and Gtr 2 plays Riff 2 (during Cadd9sus4)

Then:

E -7-7-5-5-2-2-2-3-2---7-7-5-5-2-2-2-3----|
B -------------------------------------3--| (x2)
G ----------------------------------------|
D ----------------------------------------|
A ----------------------------------------|
E ----------------------------------------|

(use some effects to play this part)
E --------------------|
B -3^5-5^7-8-7-10-12--| (x2)
G --------------------|
D --------------------|
A --------------------|
E --------------------|

 [ Repeat Intro and music fades ]
Tap to rate this tab
# A B C D E F G H I J K L M N O P Q R S T U V W X Y Z