Song name
# A B C D E F G H I J K L M N O P Q R S T U V W X Y Z

Matt Pond Pa - Measure 1 tab

Title:  'Measure 1'
Artist: matt pond PA (mattpondpa.com)
Album:  Measure
Tabbed by Jorge Díaz (j_diaz_s@yahoo.com)

 [ Standard Tunning ]

 Intro:

E ---------5-5-----|
B -3-3-5-5-----5-5-|
G -----------------| (x4) [ Palm Muted ]
D -----------------|
A -----------------|
E -----------------|


E -5-5-5-5------------2-2-2-2-----------(2)(2)(2)(2)-----------5-5-5-5-|
B -3-3-3-3------------3-3-3-3------------3--3--3--3------------3-3-3-3-|
G -2-2-2-2--2-2-0-0---2-2-2-2--2-2-0-0---0--0--0--0--2-2-0-0---2-2-2-2-|  (*)
D -0-0-0-0--4-4-2-2-0-4-4-4-4--4-4-2-2-0-0--0--0--0--4-4-2-2-0-0-0-0-0-|
A ---------------------------------------------------------------------|
E ---------------------------------------------------------------------|


 Verse 1: (0:25)

E -5-5-5-5---------------2-2-2-2-------------(2)(2)(2)(2)--------------5-5-5-5----|
B -3-3-3-3---------------3-3-3-3--------------3--3--3--3---------------3-3-3-3----|
G -2-2-2-2---2-2-0-0-----2-2-2-2---2-2-0-0----0--0--0--0---2-2-0-0-----2-2-2-2----|
D -0-0-0-0---4-4-2-2-0---4-4-4-4---4-4-2-2-0--0--0--0--0---4-4-2-2-0---0-0-0-0----|
A --------------------------------------------------------------------------------|
E --------------------------------------------------------------------------------|
 Sailors  count on the water   They think they'll measure They think they'll know

E -5-5-5-5---------------2-2-2-2-------------(2)(2)(2)(2)--------------5-5-5-5----|
B -3-3-3-3---------------3-3-3-3--------------3--3--3--3---------------3-3-3-3----|
G -2-2-2-2---2-2-0-0-----2-2-2-2---2-2-0-0----0--0--0--0---2-2-0-0-----2-2-2-2----|
D -0-0-0-0---4-4-2-2-0---4-4-4-4---4-4-2-2-0--0--0--0--0---4-4-2-2-0---0-0-0-0----|
A --------------------------------------------------------------------------------|
E --------------------------------------------------------------------------------|
 Behavior that would seem awkward You'll let your hair down You're letting go


 Bridge: (0:57)

E -5--5--5--5--5--------2--2--2--2--2----(2)(2)(2)(2)(2)----5--5--5--5--5-|
B -3--3--3--3--3--------3--3--3--3--3-----3--3--3--3--3-----3--3--3--3--3-|
G -2--2--2--2--2--------2--2--2--2--2-----0--0--0--0--0-----2--2--2--2--2-|
D -0--0--0--0--0--------4--4--4--4--4-----0--0--0--0--0-----0--0--0--0--0-|
A ------------------------------------------------------------------------|
E ------------------------------------------------------------------------|
You think you're right Why do you bother Why do you bother When you're so right


 Chorus: (1:14)

E ------------------------5-2--5-2--5-2--5-2-|
B ------------------------3-3--3-3--3-3--3-3-|
G ------------------------2-2--2-2--2-2--2-2-|
D ------------------------0-0--0-0--0-0--0-0-|
A -------------------------------------------|
E ------0----3-------------------------------|
 These novelties Doing me favors

E ---------------------------------5-2--5-2--5-2--5-2-|
B ---------------------------------3-3--3-3--3-3--3-3-|
G ---------------------------------2-2--2-2--2-2--2-2-|
D ---------------------------------0-0--0-0--0-0--0-0-|
A ----------------------------------------------------|
E -----0-----------3----------------------------------|
 It's good you're pleased Doing me favors


 [ Repeat (*) ]


 Verse 2: (1:47) [ Same as Verse 1 ]

Answers, we've sailed beyond answers - Caught in your tide pool - You're letting go
But these sailors - Count on the water - They think they'll measure - They think they'll know


 Bridge: (2:19)

So you know you're right - Why do you bother - Why do you bother - When you're so right


 Chorus: (2:36)

These novelties - Doing me favors
It's good you're pleased - Doing me favors


 (2:53)

[ Play this during this part ]

E -0------------------0------------------0------------------0--------------|
B -3--3--3--3--3------3--3--3--3--3------2--3--3--3--3------2--2--3--3--3--|
G -2--2--2--2--2--2---2--2--2--2--2--2---2--2--2--2--2--2---2--2--2--2--2--|
D -0--0--0--0--0--0---0--0--0--0--0--0---0--0--0--0--0--0---0--0--0--0--0--|
A -------------------------------------------------------------------------|
E -------------------------------------------------------------------------|

I'll measure water - I'll measure the wind - That's all I can do - That's all I can do
And if you see them - Would you remind them - That they know nothing - That they know nothing


 [ Repeat (*) twice ]


 Outro: (3:59) [ Palm Muted ]

E ---------5-5-------------5-5------------5-5-------------3-|
B -3-3-5-5-----5-5-3-3-5-5----5-5-3-3-5-5-----5-5-3-3-5-5---|
G ----------------------------------------------------------|
D ----------------------------------------------------------|
A ----------------------------------------------------------|
E ----------------------------------------------------------|
Tap to rate this tab
# A B C D E F G H I J K L M N O P Q R S T U V W X Y Z