Song name
# A B C D E F G H I J K L M N O P Q R S T U V W X Y Z

Matt Pond Pa - This Is Montreal tab

Title:  'This Is Montreal'
Artist: matt pond PA (mattpondpa.com)
Album:  The Green Fury
Tabbed by Jorge Díaz (j_diaz_s@yahoo.com)

 [ Standard Tunning ]

 Intro:


E -4-----0-----0-----0--0----4-----0-----0-----2--0--|
B -2--2--2--2--2--2--3--2----2--2--2--2--2--2--2--2--|
G -2--2--2--2--2--2--2--2----2--2--2--2--2--2--2--2--|
D -0--0--0--0--0--0--0--0----0--0--0--0--0--0--0--0--| (x2)
D ---------------------------------------------------|
A ---------------------------------------------------|
E ---------------------------------------------------|


 Verse 1: (0:05)


E -----4-----0-----0-----0--0----4-----0-----0-----0--0--|
B -----2--2--2--2--2--2--3--2----2--2--2--2--2--2--3--2--|
G -----2--2--2--2--2--2--2--2----2--2--2--2--2--2--2--2--|
D -----0--0--0--0--0--0--0--0----0--0--0--0--0--0--0--0--|
A -------------------------------------------------------|
E -------------------------------------------------------|
we stayed up 			on new year's


E -4-4^9-9--9--9--4--4--4--4----4-----0-----0-----0--0--|
B -2-----0--0--0--2--2--2--2----2--2--2--2--2--2--3--2--|
G -2--------------2--2--2--2----2--2--2--2--2--2--2--2--|
D -0--------------0--0--0--0----0--0--0--0--0--0--0--0--|
A ------------------------------------------------------|
E ------------------------------------------------------|
we went for 		     confusion


E -----4-----0-----0-----0--0-------4-----0-----0-----2--0--|
B -----2--2--2--2--2--2--3--2-------2--2--2--2--2--2--2--2--|
G -----2--2--2--2--2--2--2--2-------2--2--2--2--2--2--2--2--|
D -----0--0--0--0--0--0--0--0-------0--0--0--0--0--0--0--0--|
A ----------------------------------------------------------|
E ----------------------------------------------------------|
the streets were - all covered	  water - had frozen


E -4-4^9-9--9--9--4--4--4--4----4-----0-----0-----0--0--|
B -2-----0--0--0--2--2--2--2----2--2--2--2--2--2--3--2--|
G -2--------------2--2--2--2----2--2--2--2--2--2--2--2--|
D -0--------------0--0--0--0----0--0--0--0--0--0--0--0--|
A ------------------------------------------------------|
E ------------------------------------------------------|
slid on - our stomachs	    small fingers - had broken


E -0--0---0---0---0---0---0---0---0---0---0---0---0-|
B -0--2---2---2---2---2---2---0---0---0---0---0---0-|
G -2--2---2---2---2---2---2---2---2---2---2---2---2-|
D -0--0---0---0---0---0---0---0---0---0---0---0---0-|
A --------------------------------------------------|
E --------------------------------------------------|
	  and you want to be sure

E -0--0---0---0---0---0---0---0---0---0---0---0---0---0---0---(4)-|
B -0--2---2---2---2---2---2---2---2---3---3---3---3---3---3---(2)-|
G -2--2---2---2---2---2---2---2---2---2---2---2---2---2---2---(2)-|
D -0--0---0---0---0---0---0---0---0---0---0---0---0---0---0---(0)-|
A ----------------------------------------------------------------|
E ----------------------------------------------------------------|
      that you've slipped and you're lying - and this is Montreal


 [ Repeat Intro twice to end ]
Tap to rate this tab
# A B C D E F G H I J K L M N O P Q R S T U V W X Y Z