Song name
# A B C D E F G H I J K L M N O P Q R S T U V W X Y Z

Matt Pond Pa - Emblems tab

Help us improve GuitareTab! Take a short survey!
Title:  'Emblems'
Artist: matt pond PA (mattpondpa.com)
Album:  Several Arrows Later
Tabbed by Jorge Díaz (j_diaz_s@yahoo.com)


         E A D G B E

Am     --x-0-2-2-1-0--|
C      --x-3-2-0-1-0--|
Em     --0-2-2-0-0-0--|
Fsus9  --x-3-3-0-1-0--|
G7sus4 --3-2-0-0-1-0--|


 [ Capo 5th fret ]


 Intro:

   Am      Em          Fsus9       C
E -------------------------------------|
B -------------------------------------|
G -------------------------------------|
D -2-2-2-2-----------------------------|
A ---------2-2-2-2-3-3-0-0-0-0---------| (x2)
E -----------------------------3-3-3-3-|


 Verse: (0:26)

 Am
stayed up for ages
          Em
but the clock counts in hours
   Fsus9
asleep we watch standing
       C
let's give up on cowards
  G7sus4
speaking in fables
           Fsus9
burns out holes where we stand

   Fsus9
E ---------3-0-|
B -----1-------|
G -0-2---2-----|
D -------------|
A -------------|
E -------------|


 Verse: (0:46)

 Am
doors lean towards leaving
          Em
you know somebody's looking
 Fsus9
two tend to wake up
           C
let's see disparate footing
 G7sus4
beams help the light fall
        Fsus9
superstition is strong
 C
mostly suspicious
         G7sus4
looking sideways straight on


 Chorus: (1:10) [ play Twice ]

 Am
like ideas or emblems
            Em
we've been had
    C
the way that ghosts watch 
          Fsus9
themselves go down…


   Fsus9        Fsus9      (Am)
E ---------3-0----0h1-0-------|
B -----1--------1-------1-----|
G -0-2---2----------------0h2-|
D ----------------------------|
A ----------------------------|
E ----------------------------|


 [ Repeat Intro ]


 Verse: (2:01)

Am
i'm my own suspicion
     Em
of what it might mean
        Fsus8
to be caught in a story
          C
you were told in a dream
    G7sus4
if we took the pictures
      Fsus9
our smiles staining the floor


 Chorus: (2:19) [ play Twice ]

 Am
like ideas or emblems
            Em
we've been had
    C
the way that ghosts watch 
          Fsus9
themselves go down…


Outro: (2:43)

 [ Am G7sus4 C Fsus9 ] x2

   Fsus9  Fsus9                Fsus9
E ---------3-0-|      E ---------3--|
B -----1-------|      B -----1------|
G -0-2---2-----|      G -0-2---2----|
D -------------| (x3) D ------------|
A -------------|      A ------------|
E -------------|      E ------------|
Related for Emblems tab